Hans Zimmer

Deliver Us Prince Of Egypt

Hans Zimmer

tabs

by  GUSTSILVA

save to print version add songbook text version e-mail correct tuner
chordsukulelecavacokeyboardtabbassdrumsharmonicaflute Guitar Pro
close

there isn't a video lesson for this song

chords

Deliver Us Prince Of Egypt

	  		------------------------------------------------------------------------------- 
                             Deliver Us - Prince of Egypt 
------------------------------------------------------------------------------- 
  
e|---------------------------------------0-----------------------------------| 
B|--------3-1--3-----------------3-1-3-----3-1-3----1------------------------| 
G|----1--4-------4---4-2-----1-4-------4----------4---4-2-4--0-0--0----------| 
D|--2--------------2-------2------------------------------------------4---4-2| 
A|---------------------------------------------------------------3------2---2| 
E|--------------------------------------------------------------------------0| 

e|----------------------------------------------------------------------------| 
B|----------------------------------------------------3-1-1------1-1----------| 
G|-------------0-------------------0-2-0-------0---------------------4-2-0-0--| 
D|---0-2--2--4---4-2-1-------0-4--4-------4-2-4-----2------2-4--0-------------| 
A|-2------------------3-2--2-----------------------------------------------3-3| 
E|----------------------------------------------------------------------------| 
                                     Deliver us 
e|--------------------------------------------------------------------1-1-0--| 
B|--------------------0-----------------0-0-1-1-----0-1--1-3-3--0-1-3------1-| 
G|--4-2-0--------2-2--4---------------------------2-----2---------------0----| 
D|--------3-2------------0---------------------------------------------------| 
A|------------3-------------3--2---------------------------------------------| 
E|---------------------------------------------------------------------------| 

e|-----0-------------------0-2-3-2-0--2-3-2-0------------| 
B|--0-1--3-0--0-0-1-1--1-3-------------------------1-----| 
G|-2-------------------------------------------2-4---4---| 
D|-----------------------------------------------------2-| 
A|-------------------------------------------------------| 
E|-----------------------------------------------------0-| 

e|------------------------------------------------------------------------------| 
B|------------------------------------------------3-1-1------1-1-0---------0----| 
G|-------------0-------------------0-2--2----0----4----------------2-0-0-----2--| 
D|---0-2--2-4--2-4-2-1--------0-4-4----4--424--2-2------2-4-0--0----------------| 
A|-2---2--2----2---2-2-3--2--2----------------------------5------------3-3------| 
E|-0----------------------2--2--------------------------------------------------| 
                 Deliver us 
e|--------------------------------------------------1-0--------0-------------| 
B|-------0------------0-0-1-1--0-1--1-1-3-3--0-1-3------1---0-1--3-0--0-0-1-1| 
G|-2--2--1--------------------2--------------------0-------2-----------------| 
D|----0----------------------------------------------------------------------| 
A|---------------------------------------------------------------------------| 
E|---------------------------------------------------------------------------| 

e|-----0-2-3-2-0--2-3-2-0---------------0-2-3-2-0--3-2-0---0-----------------| 
B|-1-3-------------------------1-------------------------4-------------------| 
G|-------------------------2-4---4-------------------------------------------| 
D|----------------------------------2----------------------------------------| 
A|---------------------------------------------------------------------------| 
E|---------------------------------------------------------------------------| 
  
************************************ 

| /   slide up 
| \   slide down 
| h   hammer-on 
| p   pull-off 
| ~   vibrato 
| +   harmonic 
| x   Mute note 
| b   Bend 
| pb  Pre-bend 
| br  Bend release 
| pbr Pre-bend release 
| brb Bend release bend 

************************************ 
		  

auto scroll beats size up size down change color hide chords drawings
tab show chords e-chords YouTube Clip e-chords hide all tabs e-chords go to top tab

share