Ramin Djawadi

House Stark Theme

Ramin Djawadi

tabs

by  ALYSLIMA

save to print version add songbook text version e-mail correct tuner
chordsukulelecavacokeyboardtabbassdrumsharmonicaflute Guitar Pro
close

there isn't a video lesson for this song

chords

House Stark Theme

	  		
Part 1 - "Goodbye Brother" 

Guitar 1 

    Gm                   Bb    Cm                 Bb   G# 
e|--------------------------|-----------------------------| 
B|--------------------------|-----------------------------| 
G|--------------------------|-----------------------------| 
D|--------------------------|-----------------------------| 
A|-----------------------1--|--3------------------1-------| 
E|--3-----------------------|--------------------------4--| 

Guitar 2 

e|--------------------------|-----------------------------| 
B|--------------------------|-----------------------------| 
G|-----7~--7~--5--7p5p3--7~-|--5~--7~--8~--7--8---7~---5~-| 
D|--5~----------------------|-----------------------------| 
A|--------------------------|-----------------------------| 
E|--------------------------|-----------------------------| 



Guitar 1 

   Gm                    Bb   Eb         Cm            Bb      Gm  F/A           
e|--------------------------|-----------------------------------------| 
B|--------------------------|-----------------------------------------| 
G|--------------------------|-----------------------------------------| 
D|--------------------------|-----------------------------------------| 
A|----------------------1---|-6----------3----------------------------| 
E|-3------------------------|--------------------------6---5---3----5-| 

Guitar 2 

e|----10~-10~-8~-10p8p6-10~-|-15~--17-18-20--15~-15h17p15--13~-10~----| 
B|-8~-----------------------|-----------------------------------------| 
G|--------------------------|-----------------------------------------| 
D|--------------------------|-----------------------------------------| 
A|--------------------------|-----------------------------------------| 
E|--------------------------|-----------------------------------------| 


Part 2 - "Heir to Winterfell" 

Guitar 1 
            D#maj7              D                D#maj7              G/D 
e|-----------------|-----------------|------------------|-----------------| 
B|-----------------|-----------------|------------------|-----------------| 
G|-----------------|-----------------|------------------|-----------------| 
D|-----------------|-----------------|------------------|-----------------| 
A|-------------6---|-------------5---|--------------6---|-------------5---| 
E|-----------------|-----------------|------------------|-----------------| 

Guitar 2 

e|-------------6---|-----------------|--10~---------6---|-------------10--| 
B|--8~---10~---8---|--8~---10~---3---|--------10~---8---|--8~---10~---8---| 
G|-------------7---|-------------2---|--7~----------7---|-------------7---| 
D|--5~---7~----8---|--5~---7~----0---|--------7~----8---|--5~---7~----0---| 
A|-------------6---|-----------------|--------------6---|-----------------| 
E|-----------------|-----------------|------------------|-----------------| 


Part 3 - "King of the North" 

Guitar 1 

   Cm               D#     Fm                G 
e|-----------------------|-----------------------| 
B|-----------------------|-----------------------| 
G|--5----------------8---|--10----------------12-| 
D|--5----------------8---|--10----------------12-| 
A|--3----------------6---|--8-----------------10-| 
E|-----------------------|-----------------------| 

Guitar 2 

e|--8--15----13--11--15--|--13--15--16--15-16-15-| 
B|-----------------------|-----------------------| 
G|--5--12----10--8---12--|--10--12--13--12-13-12-| 
D|-----------------------|-----------------------| 
A|-----------------------|-----------------------| 
E|-----------------------|-----------------------| 



Guitar 1 

                     Cm             G#        Cm 
e|-----------------------|-----------------------| 
B|-----------------------|-----------------------| 
G|--------------------5--|---------------------5-| 
D|--------------------5--|-----------6---------5-| 
A|--------------------3--|-----------6---------3-| 
E|-----------------------|-----------4-----------| 

Guitar 2 

e|--13----------11-10-8--|-15--13-11-15---13---8-| 
B|-----------------------|-----------------------| 
G|--10----------8--7--5--|-12--10-8--12---10---5-| 
D|-----------------------|-----------------------| 
A|-----------------------|-----------------------| 
E|-----------------------|-----------------------| 

Don't forget to rate. Thanks! 

************************************ 

| ~  vibrato 
| h  hammer on 
| p  pull off 

************************************ 
		  

Full key step upFull key step up
Half key step upHalf key step up
Half key step downHalf key step down
Full key step downFull key step down
auto scroll beats size up size down change color hide chords drawings
tab show chords e-chords YouTube Clip e-chords hide all tabs e-chords go to top tab

share