Ramin Djawadi

Hear Me Roar

Ramin Djawadi

tabs

by  ABELAMIN

save to print version add songbook text version e-mail correct tuner
chordsukulelecavacokeyboardtabbassdrumsharmonicaflute Guitar Pro
close

there isn't a video lesson for this song

chords

Hear Me Roar

	  		
PART 1 Intro 

E|---------------------------------------------------------------------------------------| 
B|---------------------------------------------------------------------------------------| 
G|-------8---------------7------------8----10----7--------------10---8---7-----5---------| 
D|--5---------------5------------5------------------------5--------------5----------5----| 
A|-------6---------------5------------6----8-----5--------------8----6---5-----3---------| 
D|--5---------------5------------5------------------------5-------------------------5----| 


PART 2 Mid 

E|--------------------------------------------------------------------| 
B|------4-------4-------4-------4-------------------------------------| 
G|--------------------------------------1-------1-------0-------------| 
D|----5---5---5---5---5---5---5---5---3---3---3---3---1---1-----3-----| 
A|--3-------3-------------------------------------------------5---5---| 
D|------------------5-------5-------3-------3-------1-------0---------| 

E|--------------------------------------------------------------------| 
B|------4-------4-------4-------4-------------------------------------| 
G|--------------------------------------1-------0---------------------| 
D|----5---5---5---5---5---5---5---5---3---3---1---1-----3-------3-----| 
A|--3-------3-----------------------------------------5---5---5---5---| 
D|------------------5-------5-------3-------1-------0-------0---------| 
                                                                                  <-----fade out-----> 
|------------------------------------------------------------------------------------------------------| 
|------4-------4-------4-------4-----------------------------------------------------------------------| 
|--------------------0---0---0---0---------------------------------------------------------------------| 
|----5---5---5---5---------------------5-------5-------6-------6-------6-------6-------6-------6-------| 
|--3-------3-------1-------1---------5---5---5---5---6---6---6---6---6---6---6---6---6---6---6---6-----| 
|----------------------------------5-------5-------6-------6-------6-------6-------6-------6-------6---| 


Part 3 Outro 

Chords 

E|----------------------------------| 
B|---------9---8------6-----4---3---| 
G|--5------8---7------5-----3---2---| 
D|--5------6---5------3-----1---0---|  X 6 
A|--3------6---5------3-----1---0---| 
D|---------6---5------3-----1---0---| 


Melody 

E|----------------------------------------------------| 
B|----------------------------------------------------| 
G|------0-1-0--------0-1-0-------0-1-0----------------| 
D|----1-------1----1-------1---1-------1--------------|  X 6 
A|--3------------3-----------3-----------3-1-3---3----| 
D|---------------------------------------------5---5--| 

ending: 

E|------------------------------| 
B|------------------------------| 
G|------------------------------| 
D|------------------------------| 
A|--3-1-3---3-----3-1-3---3-----| 
D|--------5---5---------5---5---| 
		  

auto scroll beats size up size down change color hide chords drawings
tab show chords e-chords YouTube Clip e-chords hide all tabs e-chords go to top tab

share