Ramin Djawadi

Mhysa

Ramin Djawadi

tabs

by  ANG-LETRA

save to print version add songbook text version e-mail correct tuner
chordsukulelecavacokeyboardtabbassdrumsharmonicaflute Guitar Pro
close

there isn't a video lesson for this song

chords

Mhysa

Key:  Dm More
Mhysa Key AmAm
Mhysa Key A#mA#m
Mhysa Key BmBm
Mhysa Key CmCm(one step down)
Mhysa Key C#mC#m(half step down)
Mhysa Key DmDm(original key)
Mhysa Key D#mD#m(half step up)
Mhysa Key EmEm(one step up)
Mhysa Key FmFm
Mhysa Key F#mF#m
Mhysa Key GmGm
Mhysa Key G#mG#m
	  		
verse 1 

    d u d  u d  d  u d    d u d   u d u  d u    d u d  u d d   d u    d u d   u d u  d u   
e|---------------------|---------------------|--0-1-0--0---0---0-0-|---------------------| 
B|--3-3-3--3-3--3--3-3-|--6-8-6---6---6--6-6-|--1---1--1---1---1-1-|--3-5-3---3---3--3-3-| 
G|--2-2-2--2-2--2--2-2-|--7---7---7---7--7-7-|--0---0--0-0-0---0-0-|--2---2---2-2-2--2-2-| 
D|--0-0-0--0-0--0--0-0-|--8---------8--------|--2--------2---------|--0---0-----0--------| 
A|--0------------------|---------------------|--3------------------|--0------------------| 
D|--0------------------|---------------------|---------------------|--0------------------| 

    d u d   u d d  u d    d u d   u d u  d u    d u d   u d d  d u    d u d   d   d  d u 
 e|---------------------|--1-3-1---1---1--1-1-|--0-1-0---0---0--0-0-|---------------------| 
B|--3-3-3---3---3--3-3-|--3---3---3-3-3--3-3-|--1---1---1---1--1-1-|--3-5-3--------------| 
G|--3-3-3---3-3-3--3-3-|--2---2-----2----2-2-|--2---2---2-2-2--2-2-|--4---4--------------| 
D|--3---3-----3--------|--0------------------|--2---------2--------|--5-------3/5-3--2-0-| 
A|--1------------------|---------------------|--0------------------|---------------------| 
D|---------------------|---------------------|---------------------|---------------------| 

    d u d  u d  d  u d    d u d   u d u  d u    d u d  u d d   d u    d u d   u d u  d u   
e|---------------------|---------------------|--0-1-0--0---0---0-0-|---------------------| 
B|--3-3-3--3-3--3--3-3-|--6-8-6---6---6--6-6-|--1---1--1---1---1-1-|--3-5-3---3---3--3-3-| 
G|--2-2-2--2-2--2--2-2-|--7---7---7---7--7-7-|--0---0--0-0-0---0-0-|--2---2---2-2-2--2-2-| 
D|--0-0-0--0-0--0--0-0-|--8---------8--------|--2--------2---------|--0---0-----0--------| 
A|--0------------------|---------------------|--3------------------|--0------------------| 
D|--0------------------|---------------------|---------------------|--0------------------| 

    d u d   u d d  u d    d u d   u d d  d u    d     d     d u 
e|---------------------|--1-3-1---1---1--1-1-|--0-----0-----0-0----| 
B|--3-3-3---3---3--3-3-|--3---3---3-3-3--3-3-|--1-----1-----1-1----| 
G|--3-3-3---3-3-3--3-3-|--2---2-----2----2-2-|--2-----2-----2-2----| 
D|--3---3-----3--------|--0------------------|--2------------------| 
A|--1------------------|---------------------|--0------------------| 
D|---------------------|---------------------|---------------------| 


Chorus 1 

    d u d    u   d d d    d u d    u   d d d    d u d    u   d d d    d u d    u   d d d   
e|--5-8-5----5---5-5-5-|--5-8-5----5---5-5-5-|--5-8-5----5---5-5-5-|--7-8-7----7---7-7-7-| 
B|--6---6----6---6-6-6-|--5---5----5---5-5-5-|--5---5----5---5-5-5-|--5---5----5---5-5-5-| 
G|--7---7--------7-7-7-|--5---5--------5-5-5-|--5---5--------5-5-5-|--7---7--------7-7-7-| 
D|--0---0--------------|--5------------------|--7------------------|--5---5--------------| 
A|--0------------------|--3------------------|--0------------------|--5------------------| 
D|--0------------------|---------------------|---------------------|--5------------------| 

    d u d    u   d d d    d u d    u   d d d    d u d    u   d d d    d u d    u   d d d   
e|--5-8-5----5---5-5-5-|--5-8-5----5---5-5-5-|--7-8-7----7---7-7-7-|--9-10-9---9---9-9-9-| 
B|--5---5----5---5-5-5-|--5---5----5---5-5-5-|--5---5----5---5-5-5-|--7----7---7---7-7-7-| 
G|--5---5--------5-5-5-|--5---5--------5-5-5-|--7---7--------7-7-7-|--9----9-------9-9-9-|   
D|--3------------------|--7------------------|--5------------------|--7------------------| 
A|--3------------------|--0------------------|--5------------------|--7------------------| 
D|--3------------------|---------------------|--5------------------|--7------------------| 


Bridge 

    d   u d   u u    d   u d   u u    d   u  d  u u    d   u d   u u  
e|----------------|----------------|--------------5-|--6---5---------| 
B|--3-----------1-|--3-----------1-|--6---6--6--8---|--5---5-------6-| 
G|--2---2-----3---|--0---2-----3---|--7------7------|--5-----5---7---| 
D|--0-----0-------|--2-----2-------|--8-------------|--7-----7-------| 
A|--0-------------|--3-------------|----------------|--0-------------| 
D|--0-------------|----------------|----------------|----------------| 

    d   u d   u u    d   u d   u u    d   u  d  u u    d   u d   u u  
e|----------------|--3-------------|--3---------1-3-|--5---2-----3-5-| 
B|--8-----------6-|--6---3-----4-6-|------4---------|--3---3---------| 
G|--7---7-7---8---|--5-----5-------|--3-----3-------|--2-----2-------| 
D|--5-----5-------|--3-----3-------|--1-----1-------|--0-----0-------| 
A|--5-------------|--3-------------|--1-------------|--0-------------| 
D|--5-------------|--3-------------|--1-------------|--0-------------| 


Chorus 2 

    d u d    u   d d d   d u d   u   d d  d     d u d    u   d d d    d u d    u   d d d   
e|----6----------------|---8-----------------|----6-5----5---------|----5----------------| 
B|--8---8----8---8-8-8-|-11--11--11-11-11-11-|--6------------6-6-6-|--8---8----8---8-8-8-| 
G|--7---7----7---7-7-7-|-10--10--10-10-10-10-|--5------------5-5-5-|--7---7----7---7-7-7-| 
D|--5---5--------5-5-5-|-8---8------8--8--8--|--3------------3-3-3-|--5---5--------5-5-5-| 
A|--5------------------|-8-------------------|--3------------------|--5------------------| 
D|--5------------------|-8-------------------|--3------------------|--5------------------| 

    d u d   u    d d d    d u d   u    d d d   
e|--3-6-3---3----3-3-3-|--5-8-5---5----5-5-5-| 
B|--4---4---4----4-4-4-|--5---5---5----5-5-5-| 
G|------5--------5-5-5-|--5---5--------5-5-5-| 
D|--5------------------|--7------------------| 
A|--3------------------|--0------------------| 
D|---------------------|---------------------| 


Chorus 1 with variation 

    d u d    u   d d d    d u d    u   d d d    d u d    u   d d d    d u d    u   d d d   
e|--5-8-5----5---5-5-5-|--5-8-5----5---5-5-5-|--5-8-5----5---5-5-5-|--7-8-7----7---7-7-7-| 
B|--6---6----6---6-6-6-|--5---5----5---5-5-5-|--5---5----5---5-5-5-|--5---5----5---5-5-5-| 
G|--7---7--------7-7-7-|--5---5--------5-5-5-|--5---5--------5-5-5-|--7---7--------7-7-7-| 
D|--0---0--------------|--5------------------|--7------------------|--5---5--------------| 
A|--0------------------|--3------------------|--0------------------|--5------------------| 
D|--0------------------|---------------------|---------------------|--5------------------| 

    d     u  d   u u      d     u  d   u u      d          d d d      d         d  d  d 
e|--5--------------3---|--5------------------|--7----------7-7-7---|---------------------| 
B|--5-----5------6-----|--5-----5------6-8---|--5----------5-5-5---|--10--------10-10-10-| 
G|--5--------5---------|--5--------5---------|--7----------7-7-7---|--9---------9--9--9--| 
D|--3--------3---------|--7--------7---------|--5----------5-5-5---|--7---------7--7--7--| 
A|--3------------------|--0------------------|--5------------------|--7------------------| 
D|--3------------------|---------------------|--5------------------|--7------------------| 


Outro 

    d   u d   u u    d   u d   u u    d   u  d  u u    d              d 
e|----------------|--0-----------0-|----------------|----------------|--| 
B|--3-----------1-|--1---1-----3---|--6-----------6-|--8-------------|--| 
G|--2---2-----3---|--0-----0-------|--7---7--7--8---|--8-------------|--| 
D|--0-----0-------|--2-----2-------|--8------8------|--8-------------|0*| 
A|--0-------------|--3-------------|----------------|--6-------------|0*| 
D|--0-------------|----------------|----------------|----------------|0*| 



----------------------------------------------------------------------------------------------------------- 


In the fifth bar of Chorus 1, if you find that stretch too difficult you can change it from this: 

e|--5-8-5----5---5-5-5-|             |-----8---------------------| 
B|--5---5----5---5-5-5-|             |--10---10----10---10-10-10-| 
G|--5---5--------5-5-5-|   to this   |--9----9-----9----9--9--9--| 
D|--3------------------|             |--10--------------10-10-10-| 
A|--3------------------|             |--8------------------------| 
D|--3------------------|             |---------------------------| 

----------------------------------------------------------------------------------------------------------- 



Please don't forget to rate this tab. Thanks. 


******************************************* 

 /  Slide up 
 *  Harmonic 

******************************************* 
		  

auto scroll beats size up size down change color hide chords drawings
tab show chords e-chords YouTube Clip e-chords hide all tabs e-chords go to top tab

share