Coal Chamber

One Step

Coal Chamber

tabs

save to print version add songbook text version e-mail correct tuner
chordsukulelecavacokeyboardtabbassdrumsharmonicaflute Guitar Pro
close

there isn't a video lesson for this song

chords

One Step

	  		song : one step 
cd : dark days 
once again, another song from dark days 
 
tunning : a e a d g b 
 
- = palm mute 
 
intro 
---------------------------------------------- 
---------------------------------------------- 
----------------------------------------------4x's 
-4-3-0-3-0--3-0-3-0-3------4-3-0-3-0-3--0-3-0- 
---------------------------------------------- 
---------------------------------------------- 
 
intro 2 / chorus 
----------------------------------------------- 
----------------------------------------------- 
-----------------------------------------------4x's 
-4-3-0-3-0-3--0-3-0-3-------4-3-0-3-0-3--0-3-0- 
-4-3-0-3-0-3--0-3-0-3-------4-3-0-3-0-3--0-3-0- 
-4-3-0-3-0-3--0-3-0-3-------4-3-0-3-0-3--0-3-0- 
 
no idea for verse( i don't have any pedals) 
then chorus 2x's 
then verse 
the chorus 4x's 
 
intrelude                            then             then 
----------------------------        -----------      ----------- 
----------------------------        -----------      ----------- 
----------------------------2x's    -----------4x's  -----------8x's 
-1-1-1---1-1----1-1-1---1-1-        -8-7-8-7-7-      -8-7-8-7-7- 
-1-1-1---1-1----1-1-1---1-1-        -----------      -8-7-8-7-7- 
-1-1-1---1-1----1-1-1---1-1-        -----------      -8-7-8-7-7- 
 - - -   - -    - - -   - - 
 
then chorus 8x's 
 
thats it. it basically repeats itself(please rate) 
 
theroofingfiddler 
 

		  

See also:

tabs Avantasia - Sign Of The Cross tabs Bloodhound Gang - Fire Water Burn (The Roof is on Fire) tabs Deftones - Change tabs Crazy Town - Buterfly tabs Stone Sour - Bother tabs Interpol - Obstacle (ver. 1)
e-chords

Other versions:

tabs Coal Chamber - One Step tabs Hüsker Dü - One Step At a Time tabs Four Year Strong - One Step At A Time (acoustic) tabs Madness - One Step Beyond tabs Linkin Park - One Step Closer tabs Selfmindead - One Step Forward
auto scroll beats size up size down change color hide chords drawings
tab show chords e-chords YouTube Clip e-chords hide all tabs e-chords go to top tab

share