Coal Chamber

Fiend

Coal Chamber

tabs

save to print version add songbook text version e-mail correct tuner
chordsukulelecavacokeyboardtabbassdrumsharmonicaflute Guitar Pro
close

there isn't a video lesson for this song

chords

Fiend

	  		Tabbed By:  KoRnCoAlChAmBerFreAk 
E-mail:  [email protected] 
 
Tunning:  A E A D G B 
/ = slide    . = palm mute 
 
Intro:  8X 
E--------------------------------- 
A--5-2-2-5-2-2-5-2-5-2-2-5-2-2-5-2 
 
Intro 2:  1x 
A--5-2-2-5-2-2-5-2-5-2-2-5-2-2-8-7-5-2-2-5-2-2-5-2-5-2-2-5-2-8--8 
E--5-2-2-5-2-2-5-2-5-2-2-5-2-2-8-7-5-2-2-5-2-2-5-2-5-2-2-5-2-8--8 
A--5-2-2-5-2-2-5-2-5-2-2-5-2-2-8-7-5-2-2-5-2-2-5-2-5-2-2-5-2-8--8 
 
A--5-2-2-5-2-2-5-2-5-2-2-5-2-2-8-7-5-2-2-5-2-2-5-2-5-2-2-5-2-2-5-2 
E--5-2-2-5-2-2-5-2-5-2-2-5-2-2-8-7-5-2-2-5-2-2-5-2-5-2-2-5-2-2-5-2 
A--5-2-2-5-2-2-5-2-5-2-2-5-2-2-8-7-5-2-2-5-2-2-5-2-5-2-2-5-2-2-5-2 
 
Verse:  4x 
E--5-2-2-5-2-2-5-2-5-2-2-5-2-2-5-2 
A--5-2-2-5-2-2-5-2-5-2-2-5-2-2-5-2 
 
Chorus:  1x 
A--5-2-2-5-2-2-5-2-5-2-2-5-2-2-8-7-5-2-2-5-2-2-5-2-5-2-2-5-2-8--8 
E--5-2-2-5-2-2-5-2-5-2-2-5-2-2-8-7-5-2-2-5-2-2-5-2-5-2-2-5-2-8--8 
A--5-2-2-5-2-2-5-2-5-2-2-5-2-2-8-7-5-2-2-5-2-2-5-2-5-2-2-5-2-8--8 
 
A--5-2-2-5-2-2-5-2-5-2-2-5-2-2-8-7-5-2-2-5-2-2-5-2-5-2-2-5-2-2-5-2 
E--5-2-2-5-2-2-5-2-5-2-2-5-2-2-8-7-5-2-2-5-2-2-5-2-5-2-2-5-2-2-5-2 
A--5-2-2-5-2-2-5-2-5-2-2-5-2-2-8-7-5-2-2-5-2-2-5-2-5-2-2-5-2-2-5-2 
 
Verse:  4x 
 
Interlude 1:  1x  "Still Reasoning..." 
A--665-665-665-665-66666666-665-665-665-665-6-65 
E--665-665-665-665-66666666-665-665-665-665-6-65 
A--665-665-665-665-66666666-665-665-665-665-6-65 
   ... ... ... ... ........ ... ... ... ... . .. 
 
A--665-665-665-665-66666666-665-665-665-665-6-6-7/ 
E--665-665-665-665-66666666-665-665-665-665-6-6-7/  <--Just a  
A--665-665-665-665-66666666-665-665-665-665-6-6-7/  <--small slide 
   ... ... ... ... ........ ... ... ... ... . . 
 
Chorus:  1x 
 
Interlude 2:  1X  Another "Still reasoning..." 
E--11-10-10-11-10--11-10--11-10--11-10-11-10 
A--11-10-10-11-10--11-10--11-10--11-10-11-10 
 
E--11-10-10-11-10-10-11-10-11-10-10-11-10-10-11-10 
A--11-10-10-11-10-10-11-10-11-10-10-11-10-10-11-10 
 
After the Interlude 2, play this 2x 
A--54-4-44454-4-44454-4-444564-444 
E--54-4-44454-4-44454-4-444564-444 
A--54-4-44454-4-44454-4-444564-444 
 
Interlude 1:  1x  "Still Reasoning..." 
 
Chorus:  2x 
 
End with Interlude 2:  2x 
 

		  

Full key step upFull key step up
Half key step upHalf key step up
Half key step downHalf key step down
Full key step downFull key step down
hide glossary

See also:

tabs Deftones - Change tabs Velvet Revolver - Fall to pieces tabs Darkness - I Believe in a Thing Called Love tabs Lifehouse - Blind Acoustic tabs Queens Of The Stone Age - Go with the Flow tabs Black Crowes - Remedy
e-chords

Other versions:

tabs Coal Chamber - Fiend tabs Dark New Day - Fiend tabs Coal Chamber - Fiend (ver. 2) tabs Coal Chamber - Fiend (ver. 3) tabs Coal Chamber - Fiend (ver. 4) tabs Coal Chamber - Fiend (ver. 5)
auto scroll beats size up size down change color hide chords drawings
tab show chords e-chords YouTube Clip e-chords hide all tabs e-chords go to top tab

share