Coal Chamber

Fiend

Coal Chamber

bass

save to print version add songbook text version e-mail correct tuner
chordsukulelecavacokeyboardtabbassdrumsharmonicaflute Guitar Pro
close

there isn't a video lesson for this song

chords

Fiend

	  		

Intro (2x) (strum lightly) 
D--------------------------------------------------------------------------------
A--------------------------------------------------------------------------------
E--------------------------------------------------------------------------------
B--3-0-0-3-0-0-3-0--3-0-0-3-0-0-3-0--1-0-0-1-0-0-1-0--1-0-0-1-0-0-1-0-----------

Verse/Chorus
D------------------------------------------------------------------------
A------------------------------------------------------------------------
E--3-0-0-3-0-0-3-0--3-0-0-3-0-0-6-5--3-0-0-3-0-0-3-0--3-0-0-3-0-0-6-6---
B-----------------------------------------------------------------------

Fill (“Still Reasoning....”)
D-------------------------
A-------------------------
E-1-0-1-0-1-0-1-0-1111-0-- 
B-------------------------

Bridge (“It’s Do Or Die....”)
D----------------
A----------------
E----------------
B-5-5-3---5-5-3--

(Listen To Song To Find Out When To Play And Repeat)

 IS AMAZING!!!!!

		  

See also:

bass Cream - Sunshine Of Your Love bass Relient K - Who I am hates who Ive been bass Hoobastank - Same Direction bass Everclear - Santa Monica bass Fastball - Out Of My Head bass Smash Mouth - All Star (ver.2)
e-chords

Other versions:

bass Coal Chamber - Fiend bass Coal Chamber - Fiend (ver. 2) bass Coal Chamber - Fiend (ver. 3) bass Coal Chamber - Fiend Ver bass Coal Chamber - Fiendcgcf
auto scroll beats size up size down change color hide chords drawings
tab show chords e-chords YouTube Clip e-chords hide all tabs e-chords go to top tab

share