Coal Chamber

Over My Head

Coal Chamber

tabs

by  FERNSANTANA

save to print version add songbook text version e-mail correct tuner
chordsukulelecavacokeyboardtabbassdrumsharmonicaflute Guitar Pro
close

there isn't a video lesson for this song

chords

Over My Head

	  		

Guitars 1 and 2 (w/ dist) 

 B|--------------------------|----------------------------| 
F#|--------------------------|----------------------------| 
 D|--------------------------|----------------------------| 
 A|-----------5--5------4--4-|------------5--5------4--4--| 
 E|-2--2------5--5------4--4-|-----2------5--5------4--4--| 
 B|-0--0--0-0-3--3--0-0-2--2-|-0-0-0--0-0-3--3--0-0-2--2--|\ 
          * *       * *        * *    * *       * *         x2 
 B|---------------------------|---------------------------|/ 
F#|---------------------------|---------------------------| 
 D|---------------------------|---------------------------| 
 A|------------5--5------4--4-|------------9--9--9--9--9--| 
 E|-----2------5--5------4--4-|-----2------9--9--9--9--9--| 
 B|-0-0-0--0-0-3--3--0-0-2--2-|-0-0-0--0-0-7--7--7--7--7--| 
    * *    * *       * *        * *    * * 


Guitars 1 and 2 (w/ dist) 

 B|-------------------------|-----------------------| 
F#|-------------------------|-----------------------| 
 D|-------------------------|-----------------------| 
 A|-------------------------|-----------------------| 
 E|-------------------------|-----------------------| 
 B|-0--8--8--0--8--0------0-|-8--0--8--0--8--8------|\ 
                                                      x4 
 B|-------------------------|-----------------------|/ 
F#|-------------------------|-----------------------| 
 D|-------------------------|-----------------------| 
 A|-------------------------|-----------------------| 
 E|-------------------------|-----------------------| 
 B|-8--8--8--8--8--8------8-|s7--7--7--7--7--7------| 


I. Guitars 1 and 2 (w/ dist) 
                                              -----------------| 
 B|------------------------|------------------------|          | 
F#|------------------------|------------------------|          | 
 D|------------------------|------------------------|          | 
 A|------------------------|------------------------|          | 
 E|-2--2--2-------2--2-----|-2--2--2-------2--2-----|          | 
 B|-0--0--0-------0--0-----|-0--0--0-------0--0-----|          | 
    *  *  *       *  *       *  *  *       *  *                | x2 
 B|------------------------|-----------------------------|     | 
F#|------------------------|-----------------------------|     | 
 D|------------------------|-----------------------------|     | 
 A|------------------------|-----------------------------|     | 
 E|-2--2--2-------2--2-----|-10--10--10--10--6--6--5--5--|     | 
 B|-0--0--0-------0--0-----|-8---8---8---8---4--4--3--3--|     | 
    *  *  *       *  *                        -----------------| 

II. Guitar 1 (w/ dist) 
                                              -----------------| 
 B|--------------------------|----------------------|          | 
F#|--------------------------|----------------------|          | 
 D|-9--10--9--9---9--10-s9---|-9--9--9---9--10--9---|          | 
 A|-x--x---x--x---x--x---x---|-x--x--x---x--x---x---|          | 
 E|-7--8---7--7---7--8--s7---|-7--7--7---7--8---7---|          | 
 B|--------------------------|----------------------|          | 
                                                               | x2 
 B|------------------------|------------------------------|    | 
F#|------------------------|------------------------------|    | 
 D|-9--9--10-s9--9--9--9---|-7--7--7--10--10--10--12--12--|    | 
 A|-x--x--x---x--x--x--x---|-x--x--x--x---x---x----x---x--|    | 
 E|-7--7--8--s7--7--7--7---|-5--5--5--8---8---8---10--10--|    | 
 B|------------------------|------------------------------|    | 
                                              -----------------| 

    Guitar 2 (w/ dist) 
                                              -----------------| 
 B|------------------------|------------------------|          | 
F#|------------------------|------------------------|          | 
 D|------------------------|------------------------|          | 
 A|------------------------|------------------------|          | 
 E|-2--2--2-------2--2-----|-2--2--2-------2--2-----|          | 
 B|-0--0--0-------0--0-----|-0--0--0-------0--0-----|          | 
    *  *  *       *  *       *  *  *       *  *                | x2 
 B|------------------------|-----------------------------|     | 
F#|------------------------|-----------------------------|     | 
 D|------------------------|-----------------------------|     | 
 A|------------------------|-----------------------------|     | 
 E|-2--2--2-------2--2-----|-10--10--10--10--6--6--5--5--|     | 
 B|-0--0--0-------0--0-----|-8---8---8---8---4--4--3--3--|     | 
    *  *  *       *  *                        -----------------| 

III. Guitars 1 and 2 (w/ dist) 

 B|-------------------------|-----------------------| 
F#|-------------------------|-----------------------| 
 D|-------------------------|-----------------------| 
 A|-------------------------|-----------------------| 
 E|-------------------------|-----------------------| 
 B|-0--8--8--0--8--0------0-|-8--0--8--0--8--8------|\ 
                                                      x2 
 B|-------------------------|-----------------------|/ 
F#|-------------------------|-----------------------| 
 D|-------------------------|-----------------------| 
 A|-------------------------|-----------------------| 
 E|-------------------------|-----------------------| 
 B|-8--8--8--8--8--8------8-|s7--7--7--7--7--7------| 


Guitars 1 and 2 (w/ dist) 

 B|--------------------------|----------------------------| 
F#|--------------------------|----------------------------| 
 D|--------------------------|----------------------------| 
 A|-----------5--5------4--4-|------------5--5------4--4--| 
 E|-2--2------5--5------4--4-|-----2------5--5------4--4--| 
 B|-0--0--0-0-3--3--0-0-2--2-|-0-0-0--0-0-3--3--0-0-2--2--|\ 
          * *       * *        * *    * *       * *         x4 
 B|---------------------------|---------------------------|/ 
F#|---------------------------|---------------------------| 
 D|---------------------------|---------------------------| 
 A|------------5--5------4--4-|------------9--9--9--9--9--| 
 E|-----2------5--5------4--4-|-----2------9--9--9--9--9--| 
 B|-0-0-0--0-0-3--3--0-0-2--2-|-0-0-0--0-0-7--7--7--7--7--| 
    * *    * *       * *        * *    * * 

Guitar 3 (w/ dist) 

 B|-----------------------------|------------------------------| 
F#|-----------------------------|------------------------------| 
 D|-9--9------12--12-----11--11-|----9------12--12-----11--11--| 
 A|-x--x-------x---x-----x---x--|----x-------x---x-----x---x---| 
 E|-7--7------10--10-----9---9--|----7------10--10-----9---9---| 
 B|-----------------------------|------------------------------|\ 
                                                                 x5 
 B|-----------------------------|------------------------------|/ 
F#|-----------------------------|------------------------------| 
 D|----9------12--12-----11--11-|----9------16--16--16--16--16-| 
 A|----x-------x---x-----x---x--|----x-------x---x---x---x---x-| 
 E|----7------10--10-----9---9--|----7------14--14--14--14--14-| 
 B|-----------------------------|------------------------------| 
		  

See also:

tabs Interpol - Obstacle (ver. 1) tabs Mudvayne - Dig tabs Mudvayne - World so cold tabs Velvet Underground - Heroin tabs Queens Of The Stone Age - Go with the Flow tabs Gary Moore - The Loner
e-chords

Other versions:

tabs Lit - Over my head tabs Powderfinger - Over My Head tabs Sum 41 - Over My Head tabs Elen Levon - Over My Head tabs Coal Chamber - Over My Head tabs Crackout - Over My Head
auto scroll beats size up size down change color hide chords drawings
tab show chords e-chords YouTube Clip e-chords hide all tabs e-chords go to top tab

share