Coal Chamber

Drove

Coal Chamber

tabs

save to print version add songbook text version e-mail correct tuner
chordsukulelecavacokeyboardtabbassdrumsharmonicaflute Guitar Pro
close

there isn't a video lesson for this song

chords

Drove

	  		band : coal chamber 
song : drove 
cd : dark days 
 
tunning : a e a d g b 
 
^ = bend 
~ = let ring 
 
intro/chorus            verse (not 100% sure) 
----------------        -------------------------------------------- 
----------------        -------------------------------------------- 
----------------8x's    -------------------------------------------- 
-/6--0-0--0-3-0-        -2-2-3--2-2--2-2-3--2-2--2-2-3--2-2--2-2-3^- 2x's 
-/6--0-0--0-3-0-        -2-2-3--2-2--2-2-3--2-2--2-2-3--2-2--2-2-3^- 
-/6--0-0--0-3-0-        -2-2-3--2-2--2-2-3--2-2--2-2-3--2-2--2-2-3^- 
                         some weird effect(i don't have any pedals) 
 
 
then chorus 8x's 
then verse 2x's 
then chorus 8x's 
 
chorus 2                       other part 
----------------------       --------------------------------- 
----------------------       ---------------------------------   
----------------------8x's   ---------------------------------4x's  
-/8-8-8-8--5-6--5-6-5-       -0~---7~---6~----0-3-3-0-3-3-0-3-  
-/8-8-8-8--5-6--5-6-5-       -0~---7~---6~----0-3-3-0-3-3-0-3- 
-/8-8-8-8--5-6--5-6-5-       -0~---7~---6~----0-3-3-0-3-3-0-3- 
 
 
intrelude                                                 intrelude 2 
---------------------------------------------------      ----------------- 
-------------------------------------------------0-      ----------------- 
-------------------------------0-----0-----0-------2x's  -----------------8x's 
-----0-----0------0----0---5-6---5-6---5-6---5-6---      -1-0-1-0-1-0-1-0- 
-5-6---5-6---5-6---5-6-----------------------------      -1-0-1-0-1-0-1-0- 
---------------------------------------------------      -1-0-1-0-1-0-1-0- 
 
------------------ 
------------------ 
----------------0- 
-------0---------- 
-5--6-----5--6---- 
------------------ 
 
 
then intrelude 2 4x's 
then chorus 2 8x's 
 
please rate it! 
theroofingfiddler 
 

		  

See also:

tabs Avantasia - Sign Of The Cross tabs Bloodhound Gang - Fire Water Burn (The Roof is on Fire) tabs Deftones - Change tabs Crazy Town - Buterfly tabs Stone Sour - Bother tabs Interpol - Obstacle (ver. 1)
e-chords

Other versions:

tabs Coal Chamber - Drove
auto scroll beats size up size down change color hide chords drawings
tab show chords e-chords YouTube Clip e-chords hide all tabs e-chords go to top tab

share