Choking Victim

home > Choking Victim

In My Grave Tab

Choking Victim

Difficulty: nolevelnolevel

tuner correct add songbook print version text version save to e-mail
chordsukulelecavacokeyboardtabbassdrumsharmonicsflute Guitar Pro
chords

In My Grave

  		 e-mail: [email protected] 
 
 
 
 Part 1 is all the way through the song except parts 3&4 
 
Listen to the song for all of the time and how meany times to play the chords 
 
 
Part 1 
 
------------10---------------10----------------------------------------------------- 
------------11---------------10----------------------------------------------------- 
------------10---------------11----------------------------------------------------- 
------------12---------------12----------------------------------------------------- 
------------------------------------------------------------------------------------ 
------------------------------------------------------------------------------------ 
 
part 2 
 
------------------------------------------------------------------------------------ 
------------------------------------------------------------------------------------ 
------------------------------------------------------------------------------------ 
-------6-----8-----7---------------------------------------------------------------- 
-------6-----8-----7---------------------------------------------------------------- 
-------4-----6-----5---------------------------------------------------------------- 
 
part 3 
 
------------------------------------------------------------------------------------ 
------------------------------------------------------------------------------------ 
-----3---7----8----10----12-----10-----8------3------5-----7-----8-----7----5------- 
------------------------------------------------------------------------------------ 
-----1---5----6----8-----10-----8------6------1------3-----5-----6-----9----3------ 
------------------------------------------------------------------------------------ 
 
part 4 
 
------------------------------------------------------------------------------------ 
------------------------------------------------------------------------------------ 
------------------------------------------7--------------7-----8----------------- 
-------6-----8-----7------------6----8----7----------------------------------------- 
-------6-----8-----7------------6----8----5--------------5-----6------------------- 
-------4-----6-----5------------4----6---------------------------------------------- 
 
 
that?s it you can figure out the order. 
 

	  

Search Paypal
auto scroll beats size up size down change color hide chords drawings
tab show chords e-chords YouTube Clip e-chords hide all tabs e-chords go to top tab