Choking Victim

home > Choking Victim

In My Grave Bass Tab

Choking Victim

Difficulty: nolevelnolevel

tuner correct add songbook print version text version save to e-mail
chordsukulelecavacokeyboardtabbassdrumsharmonicsflute Guitar Pro
chords

In My Grave

  		

 ""
By Jordan Moffitt
[email protected]


intro
G--------------------------------------------------------------------------------
D--------------------------------------------------------------------------------
A--------------------------5-5-5-5-5-5-5-5---------------------------------------
E------6-6-6-6-6-6-6-6-----------------------------------------------------------

verse
G--------------------------------------------------------------------------------
D-------------------------------------------7-----------7------------------------
A-----------------8-----------8-----5555--5555555--555---------------------------
E-----------6666--6666666--666---------------------------------------------------


G--------------------------------------------------------------------------------
D--------------------------------------------------------------------------------
A-----------------------------6-6---5555555555555555-----------------------------
E-----------444444444444---------------------------------------------------------

Pretty much it, just a few fills he throws in

	  

Search Paypal
auto scroll beats size up size down change color hide chords drawings
tab show chords e-chords YouTube Clip e-chords hide all tabs e-chords go to top tab