Cacophony

ESP

Cacophony

tabs Expert expert

save to print version add songbook text version e-mail correct tuner
chordsukulelecavacokeyboardtabbassdrumsharmonicaflute Guitar Pro
close

there isn't a video lesson for this song

chords

ESP

	  		 
-3-----3--2tr3--------------------------------------------------------------- 
---0-----------3-5-------------------------------------3-5-3----------------- 
-----0-------------32-----0^2----------------------4--------4--------------- 
-2--------0------------5-2-------7-5---------------------------5-2----------- 
---------------------------0---------7-7~------------------------------------ 
---------------------------------5------------------------------------------- 
 
--3----3--2tr3------12----12--10--------10^8----8---8---7^0------------------ 
----0----------3-5-----0---------0---0------7----7----------7-8-------------- 
------0------------------0---------0----------7----7-----------9~------------ 
--2-------0---------10--------9----------7----------------------------------- 
----------------------------------------------------------------------------- 
----------------------------------------------------------------------------- 
                                                                 1/2 
----------------------------------------------7--9--10---/14^10-13b~--------- 
-----------------------8b--10---------------7-------------------------------- 
-/4~---6-7--/9~---7^9---------11~-------6-7---------------------------------- 
--------------------------------------9-------------------------------------- 
----------------------------------------------------------------------------- 
----------------------------------------------------------------------------- 
                         1/2 
---17b~--------22b------20b----------18^17--14^17^14------------------------- 
------------------------------22~-------------------17-15-14--/15~----------- 
----------------------------------------------------------------------------- 
----------------------------------------------------------------------------- 
----------------------------------------------------------------------------- 
----------------------------------------------------------------------------- 
       1 1/2 
----24b-------24-22--22b----rb22---20-19~------------------------------------ 
-------------------------------------------------15-17-19--18b~----19^18-19~- 
-21-------------------------------------------------------------------------- 
----------------------------------------------------------------------------- 
----------------------------------------------------------------------------- 
----------------------------------------------------------------------------- 
 
-----20-19------------------------------------------------------------------- 
-17--------20-19-17-----12-12------------------------------------------------ 
-------------------1612-----1211-11-9------------------------------------- 
------------------------------------------8b~-------------------------------- 
----------------------------------------------------------------------------- 
----------------------------------------------------------------------------- 
 
----------------------------------------------------------------------------- 
----------------------------------------------------------------------------- 
----------------------------------------------------------------------------- 
---------10-9---------9--7---------7--5--4----------------------------------- 
-2-2-2-2-8-7-2-2-2-2-7-5-2-2-2-2-5-3--2----------------------------------- 
-0-0-0-0------0-0-0-0------0-0-0-0------------------------------------------- 
 
 8x 
----------------------------------------------------------------------------- 
----------------------------------------------------------------------------- 
----------------------------------------------------------------------------- 
---------10--9---------12--10----------10--9---------------5----------------- 
-2-2-2-2-8--7-2-2-2-2-10-8--2-2-2-2--8--7--------------------------------- 
-0-0-0-0-------0-0-0-0--------0-0-0-0---------0-3-5-6-3-5-6------------------ 
 
 
----------------------------------------------------------------------------- 
----------------------------------------------------------------------------- 
----------------------------------------------------------------------------- 
----------------------------------------------------------------------------- 
-4-4-4-4---7----4-4---10---4-4---10---7-------------------------------------- 
-2-2-2-2---5----2-2---8----2-2---8----5-------------------------------------- 
 
----------------------------------------------------------------------------- 
----------------------------------------------------------------------------- 
---------------------------------------5-4-2-4-4----------------------------- 
----------------------------------------------------------------------------- 
-4-4-4-4---7----4-4----9----3------------------------------------------------ 
-2-2-2-2---5----2-2----7---1------------------------------------------------ 
 
----------------------------------------------------------------------------- 
----------------------------------------------------------------------------- 
----------------------------------------------------------------------------- 
----------------------------------------------------------------------------- 
-4-4-4-4---7----4-4---10---4-4---10---7-------------------------------------- 
-2-2-2-2---5----2-2---8----2-2---8----5-------------------------------------- 
 
----------------------------------------------------------------------------- 
----------------------------------------------------------------------------- 
---------------------------------------5-4-2-4-4----------------------------- 
----------------------------------------------------------------------------- 
-4-4-4-4---7----4-4----9----3------------------------------------------------ 
-2-2-2-2---5----2-2----7---1------------------------------------------------ 
 
 4x 
----------------------------------------------------------------------------- 
----------------------------------------------------------------------------- 
----------------------------------------------------------------------------- 
---------10--9---------12--10----------10--9---------------5----------------- 
-2-2-2-2-8--7-2-2-2-2-10-8--2-2-2-2--8--7--------------------------------- 
-0-0-0-0-------0-0-0-0--------0-0-0-0---------0-3-5-6-3-5-6------------------ 
 
----------------------------------------------------------------------------- 
----------------------------------------------------------------------------- 
----------------------------------------------------------------------------- 
----------------------------------------------------------------------------- 
-4-4-4-4---7----4-4---10---4-4---10---7-------------------------------------- 
-2-2-2-2---5----2-2---8----2-2---8----5-------------------------------------- 
 
----------------------------------------------------------------------------- 
----------------------------------------------------------------------------- 
---------------------------------------5-4-2-4-4----------------------------- 
----------------------------------------------------------------------------- 
-4-4-4-4---7----4-4----9----3------------------------------------------------ 
-2-2-2-2---5----2-2----7---1------------------------------------------------ 
 
----------------------------------------------------------------------------- 
----------------------------------------------------------------------------- 
----------------------------------------------------------------------------- 
----------------------------------------------------------------------------- 
-4-4-4-4---7----4-4---10---4-4---10---7-------------------------------------- 
-2-2-2-2---5----2-2---8----2-2---8----5-------------------------------------- 
 
----------------------------------------------------------------------------- 
----------------------------------------------------------------------------- 
---------------------------------------5-4-2-4-4----------------------------- 
----------------------------------------------------------------------------- 
-4-4-4-4---7----4-4----9----3------------------------------------------------ 
-2-2-2-2---5----2-2----7---1------------------------------------------------ 
 
----------------------------------------------------------------------------- 
----------------------------------------------------------------------------- 
---------9---7--------------------------7---5-------------------------------- 
---------9---7--------------------------7---5-------------------------10--7-- 
-0-0-0-0-7---5---0-0---0--0-0---0-0-0-0-5---3----0-0--0-0-0---0-0-0-0-10--7-- 
----------------------------------------------------------------------8--5-- 
 
----------------------------------------------------------------------------- 
----------------------------------------------------------------------------- 
----------------------------------------------------------------------------- 
-------------------------5----7---------------------------------------------- 
--0-0---0--0-0---0-0-0-0-5----7-----------8---------------------------------- 
-------------------------3---/5----5-5-5-/6---------------------------------- 
 
----------------------------------------------------------------------------- 
----------------------------------------------------------------------------- 
---------9---7--------------------------7---5-------------------------------- 
---------9---7--------------------------7---5-------------------------10--7-- 
-0-0-0-0-7---5---0-0---0--0-0---0-0-0-0-5---3----0-0--0-0-0---0-0-0-0-10--7-- 
----------------------------------------------------------------------8--5-- 
 
----------------------------------------------------------------------------- 
----------------------------------------------------------------------------- 
----------------------------------------------------------------------------- 
-------------------------5----7---------------------------------------------- 
--0-0---0--0-0---0-0-0-0-5----7-----------8---------------------------------- 
-------------------------3---/5----5-5-5-/6---------------------------------- 
 
----------------------------------------------------------------------------- 
----------------------------------------------------------------------------- 
-11-8----11-8-----------8----11-8--------14-11----14-11------------11----14-- 
-----10------10-------10--10------------------13-------13--------13---13----- 
---------------12-9-12-----------------------------------15-12-15------------ 
----------------------------------------------------------------------------- 
 
-------------------------------------------------------------------8-11-8---- 
-----------------------------------------------------------------10---------- 
-11--------11-8----11-8-----------8----11--8-------11-8------8-11------------ 
---------------10------10-------10--10-----------------10--10---------------- 
-------------------------12-9-12-------------------------12------------------ 
----------------------------------------------------------------------------- 
 
-/14-11-------------11-14-11-/-17-14----------------14-17-14--/20-17--------- 
-------13---------13----------------16------------16----------------19------- 
---------14--11-14--------------------14-17--14-17--------------------20-17-- 
-----------13------------------------------16------------------------------19 
----------------------------------------------------------------------------- 
----------------------------------------------------------------------------- 
                 1 1/2                          1/2 
--------17-20--20b----------------------------------------------------------- 
------19------------------------/11b~----------(9b)--rb-8---10b~------------- 
-17-20----------------------------------------------------------------------- 
----------------------------------------------------------------------------- 
----------------------------------------------------------------------------- 
----------------------------------------------------------------------------- 
                                                1/2 
----------------------------------------------------------------------------- 
----------------------------------------------------------------------------- 
--(11b)--rb---9--4-----2~---2--4--4/9--9--4---3b~-----4--6b--rb-4--2--4~-- 
----------------------------------------------7------------------------------ 
----------------------------------------------------------------------------- 
----------------------------------------------------------------------------- 
 
                1/2 
----------------------12---15^12^15^12--------------------------------------- 
--------------------------------------1512-1210-10------------------------- 
---------------6b~-----------------------------------12~---14b---rb--12^14^12 
--/7~-----7^9---------------------------------------------------------------- 
----------------------------------------------------------------------------- 
----------------------------------------------------------------------------- 
 
----------------------------------------------------------------------------- 
----------------------------------------------------------------------------- 
-----------12---------------------------------------------------------------- 
-14--12--14--14-12-14~-------14^12^14^12------------------------------------- 
----------------------------------------14-12-10-12-/14~----14--12^14^1210-- 
----------------------------------------------------------------------------- 
                               1/2              1/2       1/2 
--------------(18b~)--------------------------------------------------------- 
---------------11b~-----------(9b)----rb--8----11b~-----(7b)--rb------------- 
-----------------------------------------------------------------9-4-4-2~-- 
----------------------------------------------------------------------------- 
-/12~------------------------------------------------------------------------ 
----------------------------------------------------------------------------- 
                      1/2            1/2         1/2 
----------------------------------------------------------------------------- 
-------------------------------------------------------------------8~-------- 
-2-4--4/7-7--4^7^4---3b~-------4-6--6b---rb-4--3b~-------------6-7----------- 
------------------7--------------------------7-------------7~---------------- 
----------------------------------------------------------------------------- 
----------------------------------------------------------------------------- 
 
-12---15^12^15^12------------------------------------------------------------ 
-----------------15--1512-12-1210-10-------8-10---10b--rb-10-8------------- 
--------------------------------------12~------------------------9-7-9~------ 
----------------------------------------------------------------------------- 
----------------------------------------------------------------------------- 
----------------------------------------------------------------------------- 
 
----------------------------------------------------------------------------- 
----------------------------------------------------------------------------- 
--12-----------12------------------------------------------------------------ 
------14-12--14--14-12-14~------12^14^12------------------------------------- 
----------------------------------------14-12-10-12/14~----14--12^14^1210--- 
----------------------------------------------------------------------------- 
                 Marty's solo 
----------------------------------------------------------------------------- 
-------------------/10b~---------rb--8^11^8^11^8--7^8^7^8^7--7-------------- 
---------------------------------------------------------------10-9-7-9-7~--- 
----------------------------------------------------------------------------- 
--/12~----------------------------------------------------------------------- 
----------------------------------------------------------------------------- 
 
-15-17b----rb----15^12------15^17^15^17^15------------19^15--19---------14--- 
----------------------15^12---------------15-17-16-15------17---17^1513--13- 
----------------------------------------------------------------------------- 
----------------------------------------------------------------------------- 
----------------------------------------------------------------------------- 
----------------------------------------------------------------------------- 
 
-----------12-----11--------------------------19------------------17--------- 
-12--1210--12^10--12-8-10-10-8-10b-8~---------------18-------------------- 
------------------------------------------------1615---------------1413---- 
-----------------------------------------------------------1514------------- 
----------------------------------------------------------------------------- 
----------------------------------------------------------------------------- 
 
----------15-------------------13------------11------------------------------ 
-16---------------14------------------12------------------------------------- 
------------1211-----------10---109-----------87~------------------------- 
---1312------------1110----------------98--------------------------------- 
----------------------------------------------------------------------------- 
----------------------------------------------------------------------------- 
 
----------------13-15-13-----------------------16-19-16---------------------- 
--------------15--------15-------------------18--------18------------------21 
--16-13--13-16------------16-13---------16-19------------19-16--------19-22-- 
-------15----------------------15-----18----------------------18----21------- 
----------------------------------------------------------------------------- 
----------------------------------------------------------------------------- 
                                                      1 1/2 
-19-22-19----------------19-22-19------------19-22---22b~-------------------- 
---------21------------21--------21--------21-------------------------------- 
-----------22-19--19-22------------22-19-22---------------------------------- 
----------------21----------------------------------------------------------- 
----------------------------------------------------------------------------- 
----------------------------------------------------------------------------- 
 
 Jason's solo 
 
------------------17----------17----------17--------------------20-15------15 
--/20b~--------20b--20-17--20b--20-17--20b--20-17----17^15^17^15-----17--17-- 
-----------------------------------------------------------------------17---- 
----------------------------------------------------------------------------- 
----------------------------------------------------------------------------- 
----------------------------------------------------------------------------- 
 
-17--------------------------------------------------17---------------------- 
-----17^1513-15-16-15-13-16-15-13-15--13^10^12^13----1312----------------- 
------------------------------------------------------------14---16b--rb-14-- 
--------------------------------------------------------------15------------- 
----------------------------------------------------------------------------- 
----------------------------------------------------------------------------- 
 
-------------------------------------------------15-------------17----------- 
---------------12-----------------------------------15b---rb--b----rb---b---- 
--16-14-14^12----12---------------------------------------------------------- 
-------------------14-13-12--12-12b--rb12------------------------------------ 
---------------------------15------------15-12~------------------------------ 
----------------------------------------------------------------------------- 
 
--------15------------------------------------------------------------------- 
--rb--b----rb--b---15b---rb--13--15-13b--15--13b--15--13b--15--13------------ 
-----------------------------------------------------------------14-12------- 
----------------------------------------------------------------------------- 
----------------------------------------------------------------------------- 
----------------------------------------------------------------------------- 
                                  1 1/2 
-15-12------12--/20-15------15--24b~----------------------------------------- 
------13--13----------17--17------------------------------------------------- 
--------12--------------17--------------------------------------------------- 
----------------------------------------------------------------------------- 
----------------------------------------------------------------------------- 
----------------------------------------------------------------------------- 
 Play these two riffs 16 times (the order changes listen to the cd) 
----------------------------------------------------------------------------- 
----------------------------------------------------------------------------- 
----------------------------------------------------------------------------- 
----------------------------------------------------------------------------- 
----------------------------------------------------------------------------- 
-2---2---5-4-2-2-2-4-2-2-2-2-4-5-4-5----------------------------------------- 
 
----------------------------------------------------------------------------- 
----------------------------------------------------------------------------- 
----------------------------------------------------------------------------- 
----------------------------------------------------------------------------- 
------------------------------2-4-5------------------------------------------ 
-2---2---5-4-2-4-2-2-2-2-2-4-5----------------------------------------------- 
 
----------------------------------------------------------------------------- 
----------------------------------------------------------------------------- 
----------------------------------------------------------------------------- 
----------------------------------------------------------------------------- 
-4-4-4-4---7----4-4---10---4-4---10---7-------------------------------------- 
-2-2-2-2---5----2-2---8----2-2---8----5-------------------------------------- 
 
----------------------------------------------------------------------------- 
----------------------------------------------------------------------------- 
---------------------------------------5-4-2-4-4----------------------------- 
----------------------------------------------------------------------------- 
-4-4-4-4---7----4-4----9----3------------------------------------------------ 
-2-2-2-2---5----2-2----7---1------------------------------------------------ 
 
----------------------------------------------------------------------------- 
----------------------------------------------------------------------------- 
----------------------------------------------------------------------------- 
----------------------------------------------------------------------------- 
-4-4-4-4---7----4-4---10---4-4---10---7-------------------------------------- 
-2-2-2-2---5----2-2---8----2-2---8----5-------------------------------------- 
 
----------------------------------------------------------------------------- 
----------------------------------------------------------------------------- 
---------------------------------------5-4-2-4-4----------------------------- 
----------------------------------------------------------------------------- 
-4-4-4-4---7----4-4----9----3------------------------------------------------ 
-2-2-2-2---5----2-2----7---1------------------------------------------------ 
 
----------------------------------------------------------------------------- 
----------------------------------------------------------------------------- 
---------9---7--------------------------7---5-------------------------------- 
---------9---7--------------------------7---5-------------------------10--7-- 
-0-0-0-0-7---5---0-0---0--0-0---0-0-0-0-5---3----0-0--0-0-0---0-0-0-0-10--7-- 
----------------------------------------------------------------------8--5-- 
 
----------------------------------------------------------------------------- 
----------------------------------------------------------------------------- 
----------------------------------------------------------------------------- 
-------------------------5----7---------------------------------------------- 
--0-0---0--0-0---0-0-0-0-5----7-----------8---------------------------------- 
-------------------------3---/5----5-5-5-/6---------------------------------- 
 
----------------------------------------------------------------------------- 
----------------------------------------------------------------------------- 
---------9---7--------------------------7---5-------------------------------- 
---------9---7--------------------------7---5-------------------------10--7-- 
-0-0-0-0-7---5---0-0---0--0-0---0-0-0-0-5---3----0-0--0-0-0---0-0-0-0-10--7-- 
----------------------------------------------------------------------8--5-- 
 
----------------------------------------------------------------------------- 
----------------------------------------------------------------------------- 
----------------------------------------------------------------------------- 
-------------------------5----7---------------------------------------------- 
--0-0---0--0-0---0-0-0-0-5----7-----------8---------------------------------- 
-------------------------3---/5----5-5-5-/6---------------------------------- 
 
----------------------------------------------------------------------------- 
----------------------------------------------------------------------------- 
-drums-and-vocals------------------------------------------------------------ 
----------------------------------------------------------------------------- 
----------------------------------------------------------------------------- 
----------------------------------------------------------------------------- 
 
----------------------------------------------------------------------------- 
----------------------------------------------------------------------------- 
----------------------------------------------------------------------------- 
----------------------------------------------------------------------------- 
-5------6-3--6-3------3----5-3-6-3---6-3---3--5-3---------------------------- 
-3---------5-----5-3-5-5-----------5----3-5--5---5-3------------------------- 
 
----------------------------------------------------------------------------- 
----------------------------------------------------------------------------- 
---------14--12-----------------------12--10------------------------10--7---- 
---------14--12-----------------------12--10------------------------10--7---- 
-0-0-0-0-12--10--0-0--0--0-0--0-0-0-0-10--8---0-0--0--0-0---0-0-0-0-8---5---- 
----------------------------------------------------------------------------- 
 
----------------------------------------------------------------------------- 
----------------------------------------------------------------------------- 
----------------------------------------------------------------------------- 
------------------------5--(5~)------7----(6~)------------------------------- 
-0-0---0--0-0--0-0-0-0--5------------7--------------------------------------- 
------------------------3------------5--------------------------------------- 
 
 
Play 5 times (lead on top) 
----------------------------------------------------------------------------- 
----------------------------------------------------------------------------- 
---------9---7--------------------------7---5-------------------------------- 
---------9---7--------------------------7---5-------------------------10--7-- 
-0-0-0-0-7---5---0-0---0--0-0---0-0-0-0-5---3----0-0--0-0-0---0-0-0-0-10--7-- 
----------------------------------------------------------------------8--5-- 
 
----------------------------------------------------------------------------- 
----------------------------------------------------------------------------- 
----------------------------------------------------------------------------- 
-------------------------5----7---------------------------------------------- 
--0-0---0--0-0---0-0-0-0-5----7-----------8---------------------------------- 
-------------------------3---/5----5-5-5-/6---------------------------------- 
 
And the lead: 
 
----------------------------------------------------------------------------- 
-20b~------------------------------------------------------------------------ 
----------------------------------------------------------------------------- 
----------------------------------------------------------------------------- 
----------------------------------------------------------------------------- 
----------------------------------------------------------------------------- 
 
----------------------------------------------12-11-12~---12-------10-15-10- 
-----------------------------------------10-13-----------------10-13--------- 
---------------------------9~-----------9------------------------------------ 
--7~--------7-9~-----9^7^9--------7-9-10------------------------------------- 
-------8-7-8----------------------------------------------------------------- 
----------------------------------------------------------------------------- 
 
----------------------------------------------------------------------------- 
-13-10--13-10^13^10--10----------------------------------------------10------ 
------12---------------7-9^8-7^5--7--5^7^5-5-7--7b~------------9---7--------- 
--------------------------------7---------7----------------10^7--5----------- 
----------------------------------------------------------------------------- 
----------------------------------------------------------------------------- 
 
--17^12--12--17^12--12---------------------------------17-20-20b--rb-20-17--- 
-------15---------15--------------------13-15-----13-15-------------------20- 
---------------------------------12----------12-14--------------------------- 
-------------------------------12--12-14------------------------------------- 
-----------------------14-15-12---------------------------------------------- 
----------------------------------------------------------------------------- 
 
------------------------------------------------------------------ 
-18b-rb--18-15---------------------------------------------------- 
----------------17b---rb--17--14---------------------------------- 
-----------------------------------17b----rb--17-14----1412------ 
------------------------------------------------------------15-14- 
------------------------------------------------------------------ 
 
----------------------------------------------------------------------------- 
-----------------------------------------15-17-18-/20--20b~------------------ 
---------------------------------14-16-17------------------------------------ 
---------14--------------14-15-17-------------------------------------------- 
-14-15-17--17-15-14-15-17---------------------------------------------------- 
----------------------------------------------------------------------------- 
 
----------------------------------------------------------------------------- 
----------------------------------------------------------------------------- 
--------7tr10---7tr9---5tr7----9tr10---7tr9---5tr7---4^5^4------------------- 
--/7~-----------------------------------------------------7------------------ 
----------------------------------------------------------------------------- 
----------------------------------------------------------------------------- 
 
-17-12------12-17-12-17-12------12-17-12-17-12-17-12------12-17-12-17-12-17-- 
------13--13--------------13--13--------------------13--13------------------- 
--------14------------------14------------------------14--------------------- 
----------------------------------------------------------------------------- 
----------------------------------------------------------------------------- 
----------------------------------------------------------------------------- 
 
-12-17-12------12-17-12------12---------------------------------------------- 
---------13--13--------13--13------------------------------------------------ 
-----------14------------14-------------------------------------------------- 
----------------------------------------------------------------------------- 
----------------------------------------------------------------------------- 
----------------------------------------------------------------------------- 
 
----------------------------------------------------------------------------- 
---------10---^12^10^12---8tr10--6tr10--5tr6---3tr5---1tr3---/8--5~---------- 
----------------------------------------------------------------------------- 
--7~------------------------------------------------------------------------- 
----------------------------------------------------------------------------- 
----------------------------------------------------------------------------- 
 
-17-12------12-17-12-17-12------12-17-12-17-12-17-12------12-17-12-17-12----- 
------13--13--------------13--13--------------------13--13--------------13--- 
--------14------------------14------------------------14------------------14- 
----------------------------------------------------------------------------- 
----------------------------------------------------------------------------- 
----------------------------------------------------------------------------- 
 
---12--------------------------------------------23------------------------- 
-13-------------------------------------------------------------------------- 
----------12-10-----12-10-------12------------------------------------------- 
---------------109------10-9---------10---9--------------------------------- 
-----------------------------12---------------------------------------------- 
----------------------------------------------------------------------------- 
 
-----------/15b~-------/18b~-------23b~-------------------------------------- 
--16b~----------------------------------------------------------------------- 
----------------------------------------------------------------------------- 
(-3-)--------------------------------------------7--------------------------- 
(-3-)--------------------------------------------7--------------------------- 
(-1-)-------------------------------------------- 
 
 
_______________________________________________________ 
Contribuição: Caio Henrique Leal([email protected]) 

		  

See also:

tabs Pantera - This Love tabs Avenged Sevenfold - Buried Alive tabs Rainbow - Long Live Rock N' Roll tabs Avenged Sevenfold - Dear God tabs Slipknot - Vermilion Pt.1 tabs Marilyn Manson - Sweet Dreams (complete)
e-chords

Other versions:

tabs Cacophony - ESP tabs Anabantha - Espasmos De Veneno tabs Mymp - Especially For You tabs M.Y.M.P. - Especially for you tabs Jorell Prospero - Especially For You tabs Mymp - Especially For You (solo)
auto scroll beats size up size down change color hide chords drawings
tab show chords e-chords YouTube Clip e-chords hide all tabs e-chords go to top tab

share