Cacophony

Black Cat

Cacophony

tabs Expert expert

save to print version add songbook text version e-mail correct tuner
chordsukulelecavacokeyboardtabbassdrumsharmonicaflute Guitar Pro
close

there isn't a video lesson for this song

chords

Black Cat

	  		 
---------------------19-21----24b~------~------------------------------------ 
---------------19-20--------------------------------------------------------- 
------16-18-19--------------------------------------------------------------- 
-/16------------------------------------------------------------------------- 
----------------------------------------------------------------------------- 
----------------------------------------------------------------------------- 
 w/bar 
------------------------------/15~-----10-7---------------------------------- 
-/12---------------------------------------10-7----10-7--------------7-7^10^7 
-------------8b~-----rb--6~--------------------9-7------9-7---9---6-9-------- 
----------9-------------------------------------------------9---9------------ 
----------------------------------------------------------------------------- 
-------7--------------------------------------------------------------------- 
 
----------------------------------------------------------------------------- 
-~----10--7^10^7------------------------------------------------------------- 
-----------------9-7-9-7--7-9-/11--9^11^9-7----------------7---^9^7---7---9-- 
------------------------9---------------------9~----7----9---------9--------- 
----------------------------------------------------------------------------- 
----------------------------------------------------------------------------- 
                                   1/2 
----------------------------------------------------------------------------- 
-7--10-/12------7-10--7^10^7------------------------------------------------- 
-----------11~--------------9--9--10b~-------------11~----9---11--9~--------- 
--------------------------------------------/9~------------------------------ 
----------------------------------------------------------------------------- 
----------------------------------------------------------------------------- 
                1/4 
----------------------------------------------------------------------------- 
------------9---------------------------------------------------------------- 
----6-7--9------9b---7------------------------------------------------------- 
--9---------------------9~--------------------------------------------------- 
----------------------------------------------------------------------------- 
----------------------------------------------------------------------------- 
  Bm          1/2 
----------------------------------------------------------------------------- 
----------------------------------------------------------------------------- 
--------------8b~------7--6--7b---rb----6------------------------------------ 
-/9~-------9-------------------------------9----7---------------------------- 
---------9-----------------------------------------9~------------------------ 
----------------------------------------------------------------------------- 
 D 
----------------------------------------------------------------------------- 
----------7---10-7----------------------------------------------------------- 
---6-7-9----------9--7---9b---rb-9^11^9-7----7------------------------------- 
-9-----------------------------------------9---9~---------------------------- 
----------------------------------------------------------------------------- 
----------------------------------------------------------------------------- 
 D                                                       1/2 
-------------------------7-10--/12-------10--7^10^7-------------------------- 
----------7--^10^7---7--------------12~------------10---11b~----------------- 
--7-----9----------9---9----------------------------------------------------- 
----------------------------------------------------------------------------- 
----------------------------------------------------------------------------- 
----------------------------------------------------------------------------- 
 Bm 
----------------------------------------------------------------------------- 
----------------------------------------------------------------------------- 
-------11-----9---11--9----6-7--7^9-9b---9^11^9-7---------------------------- 
--9~---------------------9~------------------------9~------------------------ 
----------------------------------------------------------------------------- 
----------------------------------------------------------------------------- 
 C#m              7x 
----------------------------------------------------------------------------- 
------------------9---------------------------------------9~----------------- 
--------------9-11-11-9-------------------------------9-11------------------- 
----------9-11---------11-9-----------------------9-11----------------------- 
------9-11-----------------11-9---------------9-11--------------------------- 
-9-12--------------------------12---------9-12------------------------------- 
 
  Em  2x 
-12-9--9--------------------------------------------------------------------- 
-----12-12-9-12--9----------------------------------------------------------- 
---------------11-11-9-11-9-------------------------------------------------- 
---------------------------11-9---------------------------------------------- 
----------------------------------------------------------------------------- 
----------------------------------------------------------------------------- 
 
-12-9--9--------------------------------------------------------------------- 
-----12-12-9-12-9--9--------------------------------------------------------- 
-----------------11-11-9-11-9--9--------------------------------------------- 
-----------------------------11-11-9-11-9--9--------------------------------- 
-----------------------------------------11-11-9-11-9--9--------------------- 
-----------------------------------------------------12-10------------------ 
 
---------------------9-11-12^0----------------------------------------------- 
----------------------------------------------------------------------------- 
----------------9-11-----------9-8-9-8tr------------------------------------- 
-----------9-11--------------------------11-9-11~---------------------------- 
------9-11------------------------------------------------------------------- 
-9-12------------------------------------------------------------------------ 
 
 
----------------------------------------------------------------------------- 
----------------------------------------------------------------------------- 
--------------------------------4-6-4---------------------------------------- 
---------------4-5-4---------4-5-----5-4------------------------------------- 
-2-------2-4-5------5-4-2-4-5-----------5-4---------------------------------- 
---3-2-3--------------------------------------------------------------------- 
 
----------------------------------------------------------------------------- 
----------------------------------------------------------------------------- 
---------------------------------3-5-3--------------------------------------- 
---------------3-4-3---------3-4------4-3------------------------------------ 
-1-------1-3-4------4-3-1-3-4------------4-3--------------------------------- 
---2-1-2--------------------------------------------------------------------- 
 
----------------------------------------------------------------------------- 
----------------------------------------------------------------------------- 
--------------------------------4-6-4---------------------------------------- 
---------------4-5-4---------4-5-----5-4------------------------------------- 
-2-------2-4-5------5-4-2-4-5-----------5-4---------------------------------- 
---3-2-3--------------------------------------------------------------------- 
 
----------------------------------------------------------------------------- 
----------------------------------------------------------------------------- 
---------------------------------3-5-3--------------------------------------- 
---------------3-4-3---------3-4------4-3------------------------------------ 
-1-------1-3-4------4-3-1-3-4------------4-3--------------------------------- 
---2-1-2--------------------------------------------------------------------- 
 
 
-------5-10-5--------------------13-17-13--------------------13-17-13-------- 
------6------6-----------------15--------15----------------15--------15------ 
-----7--------7--------------14------------14------------14------------14---- 
----7----------7-----------15----------------15--------15----------------15-- 
-5-8------------8-----12-17--------------------17-12-17--------------------17 
----------------------------------------------------------------------------- 
 
---------17-22--------------------------------------------------------------- 
-------18-------------------------------------------------------------------- 
-----19---------------------------------------------------------------------- 
---19------------------------------------------------------------------------ 
-20-------------------------------------------------------------------------- 
----------------------------------------------------------------------------- 
 
----------------------------------------------------------------------------- 
-----------------------------------3--3--3----------------------------------- 
-----------------------------------5--5--5----------------------------------- 
----------------------------------------------------------------------------- 
-5-5-5-5-5-5-5-5-5-5-5-8-5-5-5-5-5------------------------------------------- 
----------------------------------------------------------------------------- 
 
----------------------------------------------------------------------------- 
----------------------------------------------------------------------------- 
------------------------------------10--------------------------------------- 
------------------------------------10---10---------------------------------- 
-5-5-5-5-5-5-5-5-5-5-5-8-5-5-5-5-5--8----10---------------------------------- 
-----------------------------------------8----------------------------------- 
 
----------------------------------------------------------------------------- 
-----------------------------------3--3--3----------------------------------- 
-----------------------------------5--5--5----------------------------------- 
----------------------------------------------------------------------------- 
-5-5-5-5-5-5-5-5-5-5-5-8-5-5-5-5-5------------------------------------------- 
----------------------------------------------------------------------------- 
 
----------------------------------------------------------------------------- 
----------------------------------------------------------------------------- 
------------------------------------10--------------------------------------- 
------------------------------------10---10---------------------------------- 
-5-5-5-5-5-5-5-5-5-5-5-8-5-5-5-5-5--8----10---------------------------------- 
-----------------------------------------8----------------------------------- 
 
 
------------------------------------------------------------8-12------------- 
----------------------------------------------------------10----------------- 
---------------------------------------------------------9------------------- 
-------------------------------------------------------10-------------------- 
-----------------------7---5----------8---7-5-7-----/12---------------------- 
-8-8-8---8-8-8---5-5-5---5------5-5-5---------------------------------------- 
 
-------------------------------------------5-8------------------------------- 
------------------------------------------5---------------------------------- 
-----------------------------------------5----------------------------------- 
----------------------------------------7------------------------------------ 
-------7---5-----------8---7-5-7-------7------------------------------------- 
-5-5-5---5-------5-5-5--------------5-8-------------------------------------- 
 
----------------------------------------------3-6---------------------------- 
---------------------------------------------3------------------------------- 
-------------------------------------------3--------------------------------- 
-----------------------------------------5----------------------------------- 
-------5---3----------6---5-3-5--------5------------------------------------- 
-3-3-3---3------3-3-3--------------3-6--------------------------------------- 
 
----------------------------------------------------------------------------- 
----------------------------------------------------------------------------- 
----------------------------------------------------------------------------- 
----------------------------------------------------------------------------- 
---------2b-rb--------------------------------------------------------------- 
-2-2-5-2-------5-2-5-5-2----------------------------------------------------- 
 
 
----------------------------------------------------------------------------- 
-----------------------------------3--3--3----------------------------------- 
-----------------------------------5--5--5----------------------------------- 
----------------------------------------------------------------------------- 
-5-5-5-5-5-5-5-5-5-5-5-8-5-5-5-5-5------------------------------------------- 
----------------------------------------------------------------------------- 
 
----------------------------------------------------------------------------- 
----------------------------------------------------------------------------- 
------------------------------------10--------------------------------------- 
------------------------------------10---10---------------------------------- 
-5-5-5-5-5-5-5-5-5-5-5-8-5-5-5-5-5--8----10---------------------------------- 
-----------------------------------------8----------------------------------- 
 
----------------------------------------------------------------------------- 
-----------------------------------3--3--3----------------------------------- 
-----------------------------------5--5--5----------------------------------- 
----------------------------------------------------------------------------- 
-5-5-5-5-5-5-5-5-5-5-5-8-5-5-5-5-5------------------------------------------- 
----------------------------------------------------------------------------- 
 
----------------------------------------------------------------------------- 
----------------------------------------------------------------------------- 
------------------------------------10--------------------------------------- 
------------------------------------10---10---------------------------------- 
-5-5-5-5-5-5-5-5-5-5-5-8-5-5-5-5-5--8----10---------------------------------- 
-----------------------------------------8----------------------------------- 
 
------------------------------------------------------------8-12------------- 
----------------------------------------------------------10----------------- 
---------------------------------------------------------9------------------- 
-------------------------------------------------------10-------------------- 
-----------------------7---5----------8---7-5-7-----/12---------------------- 
-8-8-8---8-8-8---5-5-5---5------5-5-5---------------------------------------- 
 
-------------------------------------------5-8------------------------------- 
------------------------------------------5---------------------------------- 
-----------------------------------------5----------------------------------- 
----------------------------------------7------------------------------------ 
-------7---5-----------8---7-5-7-------7------------------------------------- 
-5-5-5---5-------5-5-5--------------5-8-------------------------------------- 
 
----------------------------------------------3-6---------------------------- 
---------------------------------------------3------------------------------- 
-------------------------------------------3--------------------------------- 
-----------------------------------------5----------------------------------- 
-------5---3----------6---5-3-5--------5------------------------------------- 
-3-3-3---3------3-3-3--------------3-6--------------------------------------- 
 
----------------------------------------------------------------------------- 
------------4b--4------------------------------------------------------------ 
----2--4b---4b--4---2----2--2------------------------------------------------ 
--4-------------------4-------4~--------------------------------------------- 
----------------------------------------------------------------------------- 
----------------------------------------------------------------------------- 
 
----------------------------------------------------------------------------- 
---------------------------------------------------------(12b--rb-b-rb-12~)-- 
----------------7---------------7---7----5--4----2--------------------------- 
----------------5---------------7---7----5--4----2--------------------------- 
-2--4----2--4---5---------------5---5----3--2----0--------------------------- 
-0--2----0--2--/3----------5-0----------------------------------------------- 
                                                       pick slide 
----------------------------------------------------------------------------- 
----------------------------------------------------------------------------- 
----------------7------7-----7--5---4---2------------------------------------ 
----------------5------7-----7--5---4---2---------------/x------------------ 
-2--4----2--4---5------5-----5--3---2---0------------------------------------ 
-0--2----0--2--/3------------------------------------------------------------ 
 
----------------------------------------------------------------------------- 
---------------------------------------------------------(12b--rb-b-rb-12~)-- 
----------------7---------------7---7----5--4----2--------------------------- 
----------------5---------------7---7----5--4----2--------------------------- 
-2--4----2--4---5---------------5---5----3--2----0--------------------------- 
-0--2----0--2--/3----------3-3----------------------------------------------- 
 
----------------------------------------------------------------------------- 
----------------------------------------------------------------------------- 
----------------7------7-----7--5---4---2------------------------------------ 
----------------5------7-----7--5---4---2---------------/x------------------ 
-2--4----2--4---5------5-----5--3---2---0------------------------------------ 
-0--2----0--2--/3------------------------------------------------------------ 
 
-----------------------------------------------------11--------------13------ 
---------------------------------------------------12--------------14-------- 
----------12-16---------------14-18--------------11--------------13---------- 
--------12------------------14-----------------13--------------15------------ 
---10-14---------------12-16---------------9-14-----------11-16-------------- 
-10------------------12-----------------11-------------13-------------------- 
                                         w/bar--->   dive w/bar 
--------------16-20-/23-20--------------------------------------------------- 
------------16------------21------------------------------------------------- 
----------17----------------20-17------------------------------------------- 
--------18------------------------18----------------------------------------- 
---15-18----------------------------18--------------------------------------- 
-16--------------------------------------12--10--8---0----------------------- 
 
----------------------------------------------------------------------------- 
-----------------------------------3--3--3----------------------------------- 
-----------------------------------5--5--5----------------------------------- 
----------------------------------------------------------------------------- 
-5-5-5-5-5-5-5-5-5-5-5-8-5-5-5-5-5------------------------------------------- 
----------------------------------------------------------------------------- 
 
----------------------------------------------------------------------------- 
----------------------------------------------------------------------------- 
------------------------------------10--------------------------------------- 
------------------------------------10---10---------------------------------- 
-5-5-5-5-5-5-5-5-5-5-5-8-5-5-5-5-5--8----10---------------------------------- 
-----------------------------------------8----------------------------------- 
 
----------------------------------------------------------------------------- 
-----------------------------------3--3--3----------------------------------- 
-----------------------------------5--5--5----------------------------------- 
----------------------------------------------------------------------------- 
-5-5-5-5-5-5-5-5-5-5-5-8-5-5-5-5-5------------------------------------------- 
----------------------------------------------------------------------------- 
 
----------------------------------------------------------------------------- 
----------------------------------------------------------------------------- 
------------------------------------10--------------------------------------- 
------------------------------------10---10---------------------------------- 
-5-5-5-5-5-5-5-5-5-5-5-8-5-5-5-5-5--8----10---------------------------------- 
-----------------------------------------8----------------------------------- 
 
------------------------------------------------------------8-12------------- 
----------------------------------------------------------10----------------- 
---------------------------------------------------------9------------------- 
-------------------------------------------------------10-------------------- 
-----------------------7---5----------8---7-5-7-----/12---------------------- 
-8-8-8---8-8-8---5-5-5---5------5-5-5---------------------------------------- 
 
-------------------------------------------5-8------------------------------- 
------------------------------------------5---------------------------------- 
-----------------------------------------5----------------------------------- 
----------------------------------------7------------------------------------ 
-------7---5-----------8---7-5-7-------7------------------------------------- 
-5-5-5---5-------5-5-5--------------5-8-------------------------------------- 
 
----------------------------------------------3-6---------------------------- 
---------------------------------------------3------------------------------- 
-------------------------------------------3--------------------------------- 
-----------------------------------------5----------------------------------- 
-------5---3----------6---5-3-5--------5------------------------------------- 
-3-3-3---3------3-3-3--------------3-6--------------------------------------- 
 
----------------------------------------------------------------------------- 
------------4b--4------------------------------------------------------------ 
----2--4b---4b--4---2----2--2------------------------------------------------ 
--4-------------------4-------4~--------------------------------------------- 
----------------------------------------------------------------------------- 
----------------------------------------------------------------------------- 
 
----------------------------------------------------------------------------- 
---------------------------------------------------------(12b--rb-b-rb-12~)-- 
----------------7---------------7---7----5--4----2--------------------------- 
----------------5---------------7---7----5--4----2--------------------------- 
-2--4----2--4---5---------------5---5----3--2----0--------------------------- 
-0--2----0--2--/3----------5-0----------------------------------------------- 
                                                       pick slide 
----------------------------------------------------------------------------- 
----------------------------------------------------------------------------- 
----------------7------7-----7--5---4---2------------------------------------ 
----------------5------7-----7--5---4---2---------------/x------------------ 
-2--4----2--4---5------5-----5--3---2---0------------------------------------ 
-0--2----0--2--/3------------------------------------------------------------ 
 
----------------------------------------------------------------------------- 
---------------------------------------------------------(12b--rb-b-rb-12~)-- 
----------------7---------------7---7----5--4----2--------------------------- 
----------------5---------------7---7----5--4----2--------------------------- 
-2--4----2--4---5---------------5---5----3--2----0--------------------------- 
-0--2----0--2--/3----------3-3----------------------------------------------- 
 
----------------------------------------------------------------------------- 
----------------------------------------------------------------------------- 
----------------7------7-----7--5---4---2------------------------------------ 
----------------5------7-----7--5---4---2---------------/x------------------ 
-2--4----2--4---5------5-----5--3---2---0------------------------------------ 
-0--2----0--2--/3------------------------------------------------------------ 
 
-----------------------------------------------------11--------------13------ 
---------------------------------------------------12--------------14-------- 
----------12-16---------------14-18--------------11--------------13---------- 
--------12------------------14-----------------13--------------15------------ 
---10-14---------------12-16---------------9-14-----------11-16-------------- 
-10------------------12-----------------11-------------13-------------------- 
                                         w/bar--->   dive w/bar 
--------------16-20-/23-20--------------------------------------------------- 
------------16------------21------------------------------------------------- 
----------17----------------20-17------------------------------------------- 
--------18------------------------18----------------------------------------- 
---15-18----------------------------18--------------------------------------- 
-16--------------------------------------12--10--8---0----------------------- 
 
----------3------------3-----4-3-----3--------------------------------------- 
-----4-----4-3--3-4-3---4-3-----4-3---4-3------3----------------------------- 
-5-7--7-5-----5------5-----5--------5----5-------5--------------------------- 
-------------------------------------------6-5-----6-5----6-5---------------- 
------------------------------------------------------6-5-----6-5------------ 
----------------------------------------------------------------------------- 
 
----------1-------------1-----2-1-----1-------------------------------------- 
-----2------2-1--2-1-2---2-1-----2-1---2-1-----2----------------------------- 
-3-5--5-3------3------3-----3-------3-----3------3--------------------------- 
--------------------------------------------4-3----4-3----4-3---------------- 
------------------------------------------------------4-3-----4-3------------ 
----------------------------------------------------------------------------- 
 
-------------10-----------------10-------10---------------------------------- 
---10-12-10----12-10--10-12-10----12-10----12-10-------10-------------------- 
-10--------10-------10--------10----------------109-7---109-7-------------- 
---------------------------------------------------------------9-7----------- 
----------------------------------------------------------------------------- 
----------------------------------------------------------------------------- 
 
----------------------------------------------------------------------------- 
----------------------------------------------------------------------------- 
--9-7------------------------------------------------------------------------ 
-----9-7----9-7-------------------------------------------------------------- 
--------8-7----8-7----------------------------------------------------------- 
------------------10--------------------------------------------------------- 
 
-------------8-5-----------------------13-16-13------------------------9-12-9 
----6-------6---6--------------------13--------13-----------10-------10------ 
-2-5-5-2-2-5-----5---13-10------10-13------------13-----------9-6-6-9-------- 
3-------3---------7-------10--10-------------------15------------7----------- 
-------------------8--------11-----------------------15---------------------- 
-------------------------------------------------------16-13----------------- 
 
-------------------------20-17------17----------------------------------------------- 
10--------18-13------13-------18--18---18b---------3-----5-----5--5----3------------- 
--9------------14--14-----------17-----------------5-----6-----7--6----5------------- 
---11------------15--------------------------------5-----6-----7--6----5------------- 
-----12--------------------------------------------1-----4----/5--4----1------------- 
----------------------------------------------------------------------------- 
 
----------------------------------10-14-10---------------------10-14-10------ 
--------7-12-7------------------12--------12-----------------12--------12---- 
-------7------7---------------11------------11-------------11------------11-- 
------9--------9------------12----------------12---------12----------------12 
-----9----------9-------9-14--------------------14-9---14-------------------- 
-7-10------------10-7-------------------------------------------------------- 
 
---------------------14-19-14------------------------------------------------ 
-------------------15--------15---------------------------------------------- 
-----------------16------------16-------------------------------------------- 
---------------16----------------16------------------------------------------ 
-14-9-----14-17--------------------17-14------------------------------------- 
----------------------------------------------------------------------------- 
 
-----------8-13-8---------------------8-13-8------------------------12-17-12- 
---------10------10-----------------10------10--------------------14--------- 
-------10----------10-------------10----------10----------------14----------- 
-----10--------------10---------10--------------10------------14------------- 
-8-12------------------12-8---12------------------12-8---12-16--------------- 
----------------------------------------------------------------------------- 
 
-----------------------------8-13-8------------------------------------------ 
-14------------------------10------10---------------------------------------- 
---14--------------------10----------10-------------------------------------- 
-----14----------------10--------------10------------------------------------ 
-------16-12-------8-12------------------12-8-------------------------------- 
----------------------------------------------------------------------------- 
 
-------5-10-5-------------5-10-5-------------5-10-5-------------------10-14-- 
------7------7-----------7------7-----------7------7----------------12------- 
-----7--------7---------7--------7---------7--------7-------------11--------- 
----7----------7-------7----------7-------7----------7----------12----------- 
-5-9------------9-5---9------------9-5---9------------9-5---9-14------------- 
----------------------------------------------------------------------------- 
 
-10-------------------------------------------------------------------------- 
---12------------------------------------------------------------------------ 
-----11---------------------------------------------------------------------- 
-------12-------------------------------------------------------------------- 
---------14-9---------------------------------------------------------------- 
----------------------------------------------------------------------------- 
 
------------14-19-14----------------------14-19-14----------------------14-19 
----------15--------15------------------15--------15------------------15----- 
--------16------------16--------------16------------16--------------16------- 
------16----------------16----------16----------------16----------16--------- 
-14-17--------------------17-14---17--------------------17-14---17----------- 
----------------------------------------------------------------------------- 
 
-14----------------------12-17-12-------------------------------------------- 
---15------------------14--------14------------------------------------------ 
-----16--------------14------------14---------------------------------------- 
-------16----------14----------------14-------------------------------------- 
---------17---12-16--------------------16-12--------------------------------- 
----------------------------------------------------------------------------- 
 
                             4x 
|-------------------------------------------16-19-16--------------------16-19 
|-----------12-17-12----------------------17--------17----------------17----- 
|---------13--------13------------------16------------16------------16------- 
|-------14------------14--------------18----------------18--------18--------- 
|-----14----------------14-------14-19--------------------19-14-19----------- 
|12-16--------------------16-12---------------------------------------------- 
 
-16-------------18-13--------------------13-----|---------------------------- 
---17----------------15----------------15-------|---------------------------- 
-----16----------------15------------15---------|---------------------------- 
-------18----------------15--------15-----------|---------------------------- 
---------19-14-------------17-13-17-------------|---------------------------- 
------------------------------------------------|---------------------------- 
 
--------------18-22-18-----------------13-18-13------------------------------ 
------------18--------18-------------15--------15---------------------------- 
----------19------------19---------15------------15-------------------------- 
--------20----------------20-----15----------------15------------------------ 
---17-20--------------------20-17--------------------17-13------------------- 
-18-------------------------------------------------------------------------- 
 
--17-16---15-16-15-14--13-12-11-12------------------------------------------- 
----------------------------------------------------------------------------- 
-------------------------------------7-5-5----------------------------------- 
----------------------------------------7-7---5-6-5--5----------------------- 
-------------------------------------------8-5-----8------------------------- 
----------------------------------------------------------------------------- 
 
----------------------------------------------------------------------------- 
------------4b--4------------------------------------------------------------ 
----2--4b---4b--4---2----2--2------------------------------------------------ 
--4-------------------4-------4~--------------------------------------------- 
----------------------------------------------------------------------------- 
----------------------------------------------------------------------------- 
 
----------------------------------------------------------------------------- 
---------------------------------------------------------(12b--rb-b-rb-12~)-- 
----------------7---------------7---7----5--4----2--------------------------- 
----------------5---------------7---7----5--4----2--------------------------- 
-2--4----2--4---5---------------5---5----3--2----0--------------------------- 
-0--2----0--2--/3----------5-0----------------------------------------------- 
                                                       pick slide 
----------------------------------------------------------------------------- 
----------------------------------------------------------------------------- 
----------------7------7-----7--5---4---2------------------------------------ 
----------------5------7-----7--5---4---2---------------/x------------------ 
-2--4----2--4---5------5-----5--3---2---0------------------------------------ 
-0--2----0--2--/3------------------------------------------------------------ 
 
----------------------------------------------------------------------------- 
---------------------------------------------------------(12b--rb-b-rb-12~)-- 
----------------7---------------7---7----5--4----2--------------------------- 
----------------5---------------7---7----5--4----2--------------------------- 
-2--4----2--4---5---------------5---5----3--2----0--------------------------- 
-0--2----0--2--/3----------3-3----------------------------------------------- 
                             continue to play rhythm.. 
---------------------------------------------12-15-12-----------12---15------ 
------------------------------------------------------15-12-------15b--b~---- 
----------------7------7-----7--5---4---2------------------14-12------------- 
----------------5------7-----7--5---4---2------------------------------------ 
-2--4----2--4---5------5-----5--3---2---0------------------------------------ 
-0--2----0--2--/3------------------------------------------------------------ 
        1/2 
----------------------------------------------------------------------------- 
-13--15b----13~-------------------------------------------------------------- 
--------------------------(7b)--rb--b--7b--7b-7b--rb-b--7b~------------------ 
----------------------------------------------------------------------------- 
----------------------------------------------------------------------------- 
----------------------------------------------------------------------------- 
 
----------------------------------------------------------------------------- 
--8b---10---12b----10~-----8^10~--------------------------------------------- 
-------------------------------------------9^7-5~--------------------------- 
----------------------------------------------------------------------------- 
----------------------------------------------------------------------------- 
----------------------------------------------------------------------------- 
 
-----------------------------------------------------11--------------13------ 
---------------------------------------------------12--------------14-------- 
----------12-16---------------14-18--------------11--------------13---------- 
--------12------------------14-----------------13--------------15------------ 
---10-14---------------12-16---------------9-14-----------11-16-------------- 
-10------------------12-----------------11-------------13-------------------- 
                                         w/bar--->   dive w/bar 
--------------16-20-/23-20--------------------------------------------------- 
------------16------------21------------------------------------------------- 
----------17----------------20-17------------------------------------------- 
--------18------------------------18----------------------------------------- 
---15-18----------------------------18--------------------------------------- 
-16--------------------------------------12--10--8---0----------------------- 
 
 Play this 3 times 
 Lead guitar plays just some licks in E 
 
-4-------0-------5---------2---------5-----------2---------4--------0-------- 
---0---0--0---0--------------2---2------4----4------4---4----0---0-----0----- 
-----3------1-------6-5-6------2----------------------2--------3------------- 
-2---------------4---------4---------4-----7-----4---------2--------2-------- 
----------------------------------------------------------------------------- 
----------------------------------------------------------------------------- 
 
---------4-----------------------9----------------------2-------------------- 
-----------4---4-----4-----------------------5-------5----2---2------2------- 
-------------5---5/6---6-5---------9-8-9----6-------4-------3--3--3/4-43---- 
---------------------------6-----6---------6-------6---------------------4--- 
-----------------------------6------------4-------2-----------------------4-- 
-0-1-2-3-4----------------------------------------------2-------------------- 
 
 
--------3-------------------------------------------------------------------- 
----------5--------4---4----------------------------------------------------- 
-----5-----5--------4----4--------------------------------------------------- 
----5-5-----5--------4----4-------------------------------------------------- 
--3----------3---2-----2----2------------------------------------------------ 
----------------------------------------------------------------------------- 
		  

Full key step upFull key step up
Half key step upHalf key step up
Half key step downHalf key step down
Full key step downFull key step down
hide glossary

See also:

tabs Pantera - This Love tabs Avenged Sevenfold - Buried Alive tabs Rainbow - Long Live Rock N' Roll tabs Avenged Sevenfold - Dear God tabs Slipknot - Vermilion Pt.1 tabs Marilyn Manson - Sweet Dreams (complete)
e-chords

Other versions:

tabs Cacophony - Black Cat tabs Janet Jackson - Black Cat
auto scroll beats size up size down change color hide chords drawings
tab show chords e-chords YouTube Clip e-chords hide all tabs e-chords go to top tab

share