Cacophony

X-Ray Eyes

Cacophony

tabs Expert expert

save to print version add songbook text version e-mail correct tuner
chordsukulelecavacokeyboardtabbassdrumsharmonicaflute Guitar Pro
close

there isn't a video lesson for this song

chords

X-Ray Eyes

	  		 
----------------------------------------------------------------------------- 
----------------------------------------------------------------------------- 
--------------------6------9-----------------7---9---6---7------------------- 
-2----------4---7---6------9---2-------------7---9---6---7------------------- 
-2---2--2---4---7---4---/--7---2--2--2--2----5--/7---4--/5------------------- 
-0---0--0---2--/5--------------0--0--0--0------------------------------------ 
 
----------------------------------------------------------------------------- 
----------------------------------------------------------------------------- 
--------------------6------9-----------------7--7--6--5---------------------- 
-2----------4---7---6------9---2-------------7--7--6--5---------------------- 
-2---2--2---4---7---4---/--7---2--2--2--2----5--5-4-3---------------------- 
-0---0--0---2--/5--------------0--0--0--0------------------------------------ 
 
----------------------------------------------------------------------------- 
----------------------------------------------------------------------------- 
--------------------6------9-----------------7---9---6---7------------------- 
-2----------4---7---6------9---2-------------7---9---6---7------------------- 
-2---2--2---4---7---4---/--7---2--2--2--2----5--/7---4--/5------------------- 
-0---0--0---2--/5--------------0--0--0--0------------------------------------ 
 
----------------------------------------------------------------------------- 
----------------------------------------------------------------------------- 
--------------------6------9-----------------7--7--6--5------7--7--6--5------ 
-2----------4---7---6------9---2-------------7--7--6--5------7--7--6--5------ 
-2---2--2---4---7---4---/--7---2--2--2--2----5--5-4-3-2-2--5--5-4-3------ 
-0---0--0---2--/5--------------0--0--0--0---------------0-0------------------ 
 
----------------------------------------------------------------------------- 
----------------------------------------------------------------------------- 
----------------------------------------------------------------------------- 
---------------------------------------------------5---4--7------------------ 
---------------------------------------------------5---4--7------------------ 
-2-2-2-2-3-2-2-2-3-2-2-3-2-2-2---2-2-2-2-3-2-2-2-3---3-2-/5------------------ 
 
----------------------------------------------------------------------------- 
----------------------------------------------------------------------------- 
----------------------------------------------------------------------------- 
-------------------5---4---7--4--5---7---4-----------8---7------------------- 
-------------------5---4---7--4--5---7---4----2-2-2--8---7------------------- 
-2-2-2-2-3-2-2-2-3---3-2--/5--2--3--/5---2----0-0-0--6---5------------------- 
 
----------------------------------------------------------------------------- 
----------------------------------------------------------------------------- 
----------------------------------------------------------------------------- 
---------------------------------------------------5---4--7------------------ 
---------------------------------------------------5---4--7------------------ 
-2-2-2-2-3-2-2-2-3-2-2-3-2-2-2---2-2-2-2-3-2-2-2-3---3-2-/5------------------ 
 
----------------------------------------------------------------------------- 
----------------------------------------------------------------------------- 
----------------------------------------------------------------------------- 
-------------------5---4---7--4--5---7---4-----------8---7------------------- 
-------------------5---4---7--4--5---7---4----2-2-2--8---7------------------- 
-2-2-2-2-3-2-2-2-3---3-2--/5--2--3--/5---2----0-0-0--6---5------------------- 
 
 
----------------------------------------------------------------------------- 
-------------------------------4--4---4---6---6---7-------------------------- 
-------------------------------4--4^6-4^6-6^7-6^7-8^7^8^11------------------- 
--------------------------6-4---6-------------------------------------------- 
-6-4---7-6-4-6-4--------------6---------------------------------------------- 
----7-6---------7-6-3-2------------------------------------------------------ 
 
----------------------------------------------------------------------------- 
-------------------------------4--4---4---6---6------------------------------ 
-------------------------------4--4^6-4^6-6^7-64---------------------------- 
--------------------------6-4---6-----------------6~------------------------- 
-6-4---7-6-4-6-4--------------6---------------------------------------------- 
----7-6---------7-6-3-2------------------------------------------------------ 
 
----------------------------------------------------------------------------- 
-------------------------------4--4---4---6---6---7-------------------------- 
-------------------------------4--4^6-4^6-6^7-6^7-8^7^8^11------------------- 
--------------------------6-4---6-------------------------------------------- 
-6-4---7-6-4-6-4--------------6---------------------------------------------- 
----7-6---------7-6-3-2------------------------------------------------------ 
 
----------------------------------------------------------------------------- 
-------------------------------4--4---4---6---6------------------------------ 
-------------------------------4--4^6-4^6-6^7-64---------------------------- 
--------------------------6-4---6-----------------6--4----------------------- 
-6-4---7-6-4-6-4--------------6---------------------------------------------- 
----7-6---------7-6-3-2------------------------------------------------------ 
 
----------------------------------------------------------------------------- 
----------------------------------------------------------------------------- 
--------------------6------9-----------------7---9---6---7------------------- 
-2----------4---7---6------9---2-------------7---9---6---7------------------- 
-2---2--2---4---7---4---/--7---2--2--2--2----5--/7---4--/5------------------- 
-0---0--0---2--/5--------------0--0--0--0------------------------------------ 
 
----------------------------------------------------------------------------- 
----------------------------------------------------------------------------- 
--------------------6------9-----------------7--7--6--5---------------------- 
-2----------4---7---6------9---2-------------7--7--6--5---------------------- 
-2---2--2---4---7---4---/--7---2--2--2--2----5--5-4-3---------------------- 
-0---0--0---2--/5--------------0--0--0--0------------------------------------ 
 
----------------------------------------------------------------------------- 
----------------------------------------------------------------------------- 
--------------------6------9-----------------7---9---6---7------------------- 
-2----------4---7---6------9---2-------------7---9---6---7------------------- 
-2---2--2---4---7---4---/--7---2--2--2--2----5--/7---4--/5------------------- 
-0---0--0---2--/5--------------0--0--0--0------------------------------------ 
 
----------------------------------------------------------------------------- 
----------------------------------------------------------------------------- 
--------------------6------9-----------------7--7--6--5------7--7--6--5------ 
-2----------4---7---6------9---2-------------7--7--6--5------7--7--6--5------ 
-2---2--2---4---7---4---/--7---2--2--2--2----5--5-4-3-2-2--5--5-4-3------ 
-0---0--0---2--/5--------------0--0--0--0---------------0-0------------------ 
 
----------------------------------------------------------------------------- 
----------------------------------------------------------------------------- 
----------------------------------------------------------------------------- 
---------------------------------------------------5---4--7------------------ 
---------------------------------------------------5---4--7------------------ 
-2-2-2-2-3-2-2-2-3-2-2-3-2-2-2---2-2-2-2-3-2-2-2-3---3-2-/5------------------ 
 
----------------------------------------------------------------------------- 
----------------------------------------------------------------------------- 
----------------------------------------------------------------------------- 
-------------------5---4---7--4--5---7---4-----------8---7------------------- 
-------------------5---4---7--4--5---7---4----2-2-2--8---7------------------- 
-2-2-2-2-3-2-2-2-3---3-2--/5--2--3--/5---2----0-0-0--6---5------------------- 
 
----------------------------------------------------------------------------- 
----------------------------------------------------------------------------- 
----------------------------------------------------------------------------- 
---------------------------------------------------5---4--7------------------ 
---------------------------------------------------5---4--7------------------ 
-2-2-2-2-3-2-2-2-3-2-2-3-2-2-2---2-2-2-2-3-2-2-2-3---3-2-/5------------------ 
 
----------------------------------------------------------------------------- 
----------------------------------------------------------------------------- 
----------------------------------------------------------------------------- 
-------------------5---4---7--4--5---7---4-----------8---7------------------- 
-------------------5---4---7--4--5---7---4----2-2-2--8---7------------------- 
-2-2-2-2-3-2-2-2-3---3-2--/5--2--3--/5---2----0-0-0--6---5------------------- 
 
 
----------------------------------------------------------------------------- 
-------------------------------4--4---4---6---6---7-------------------------- 
-------------------------------4--4^6-4^6-6^7-6^7-8^7^8^11------------------- 
--------------------------6-4---6-------------------------------------------- 
-6-4---7-6-4-6-4--------------6---------------------------------------------- 
----7-6---------7-6-3-2------------------------------------------------------ 
 
----------------------------------------------------------------------------- 
-------------------------------4--4---4---6---6------------------------------ 
-------------------------------4--4^6-4^6-6^7-64---------------------------- 
--------------------------6-4---6-----------------6~------------------------- 
-6-4---7-6-4-6-4--------------6---------------------------------------------- 
----7-6---------7-6-3-2------------------------------------------------------ 
 
----------------------------------------------------------------------------- 
-------------------------------4--4---4---6---6---7-------------------------- 
-------------------------------4--4^6-4^6-6^7-6^7-8^7^8^11------------------- 
--------------------------6-4---6-------------------------------------------- 
-6-4---7-6-4-6-4--------------6---------------------------------------------- 
----7-6---------7-6-3-2------------------------------------------------------ 
 
----------------------------------------------------------------------------- 
-------------------------------4--4---4---6---6------------------------------ 
-------------------------------4--4^6-4^6-6^7-64---------------------------- 
--------------------------6-4---6-----------------6--4----------------------- 
-6-4---7-6-4-6-4--------------6---------------------------------------------- 
----7-6---------7-6-3-2------------------------------------------------------ 
 
----------------------------------------------------------------------------- 
----------------------------------------------------------------------------- 
--------------------6------9-----------------7---9---6---7------------------- 
-2----------4---7---6------9---2-------------7---9---6---7------------------- 
-2---2--2---4---7---4---/--7---2--2--2--2----5--/7---4--/5------------------- 
-0---0--0---2--/5--------------0--0--0--0------------------------------------ 
 
----------------------------------------------------------------------------- 
----------------------------------------------------------------------------- 
--------------------6------9-----------------7--7--6--5---------------------- 
-2----------4---7---6------9---2-------------7--7--6--5---------------------- 
-2---2--2---4---7---4---/--7---2--2--2--2----5--5-4-3---------------------- 
-0---0--0---2--/5--------------0--0--0--0------------------------------------ 
 
----------------------------------------------------------------------------- 
----------------------------------------------------------------------------- 
--------------------6------9-----------------7---9---6---7------------------- 
-2----------4---7---6------9---2-------------7---9---6---7------------------- 
-2---2--2---4---7---4---/--7---2--2--2--2----5--/7---4--/5------------------- 
-0---0--0---2--/5--------------0--0--0--0------------------------------------ 
 
----------------------------------------------------------------------------- 
----------------------------------------------------------------------------- 
--------------------6------9-----------------7--7--6--5------7--7--6--5------ 
-2----------4---7---6------9---2-------------7--7--6--5------7--7--6--5------ 
-2---2--2---4---7---4---/--7---2--2--2--2----5--5-4-3-2-2--5--5-4-3------ 
-0---0--0---2--/5--------------0--0--0--0---------------0-0------------------ 
 
solo 
 
----------------------------------------------------------------------------- 
----------------------------------------------------------------------7-9-10- 
--------------------------2-----2-4-----------4-6-7/9--/11-9-7--7-9-11------- 
-----------2---------2-4-6-6-4-6----/7-6-4-6-7----------------11------------- 
------2-4-5-5-4-2-4-5-------------------------------------------------------- 
-2-4-5----------------------------------------------------------------------- 
 
-7-------7-9-7-10-9-7-9-7-----------7---------------------------------------- 
--10-9-10----------------10-9-7-9-10-10-9-7-9-10-7-9-10---------------------- 
-------------------------------------------------------6-7-9--7-6-4-6-4-4---- 
-----------------------------------------------------------------------7-7-6- 
----------------------------------------------------------------------------- 
----------------------------------------------------------------------------- 
 
----------------------------------------------------------------------------- 
----------------------------------------------------------------------------- 
------4---------------------------------------------------------------------- 
-4-6-7-7-6-4-6-7--4-6-7------------------------------------------------------ 
-----------------------2-4-5--/7-5-4-5-4-4-------4--------------------------- 
----------------------------------------7-7-5-4-5-7-5-4-------0--dive-w/bar-- 
 
              1/2       1 1/2            1/2 
----------------------------------------------------------------------------- 
----------------------------------------------------------------------------- 
--4b~----6--6b-----rb---b------rb---7---6b---rb--4--4~---2---2~---1--1--2-4-- 
----------------------------------------------------------------------------- 
----------------------------------------------------------------------------- 
----------------------------------------------------------------------------- 
 
-------------------------------------------------------------------------7--- 
------------------------------------------------------------------------7---- 
-----------------------------4b---rb--2--------------------4-7--/9-7-6-7----- 
-2----------------------4---------------4-2---------------4-----------9------ 
---2~------2--/4~-----4---4-----------------4-2--------2-5------------------- 
------------------------------------------------5~--------------------------- 
 
-/14-10------------------------------16-19-16---------------12-16~----------- 
-------12--------------------------16--------16-----------12----------------- 
---------11-------------------13-16------------16-------13------------------- 
-----------12---------------13-------------------18--14--------------------- 
-------------16-14-----11-14------------------------------------------------- 
----------------------------------------------------------------------------- 
                                     1/2                 1/2 
----------------------------------------------------------------------------- 
-------------------------------7-9-9b---rb-b-rb-7---9---9b----9-10-7-9~------ 
----------------4-6-4--6---6-7----------------------------------------------- 
-/4~-------4-6-7-----7------------------------------------------------------- 
-------5-4------------------------------------------------------------------- 
----------------------------------------------------------------------------- 
                      1/2                                  1/2 
-------------------------------------/12b----rb--11-12--11b-----rb-9-10-98-- 
----------------------------------------------------------------------------- 
--/11-9--(9b)-rb----8b--~---------------------------------------------------- 
-----------------11---------------------------------------------------------- 
----------------------------------------------------------------------------- 
----------------------------------------------------------------------------- 
     1/2 
-9-8b------------14----------------/18b-------rb---b--rb---14---------------- 
--------10-12-/13--13---12----10~----------------------------18-14--14-17-14- 
---------------------11----11-------------------------------------17--------- 
----------------------------------------------------------------------------- 
----------------------------------------------------------------------------- 
----------------------------------------------------------------------------- 
 
-------------------17-19-17---------------------14-17-14--------------------- 
-17-14--14---19--19--------19-------18-14--14-18--------17-14--14------------ 
------17-------18------------18-16-------18------------------17--17--16b----- 
----------------------------------------------------------------------------- 
----------------------------------------------------------------------------- 
----------------------------------------------------------------------------- 
 
----------------------------------------------------------------------------- 
--------------------------------------------------------------10-12-14-12-10- 
--14~---------------------------------------6-9-11-9-6-6----11--------------- 
-----------------------------9--9-7-4-7-9--9----------9---------------------- 
---------------5-7-----5-7-9------------------------------------------------- 
-------------------7-5------------------------------------------------------- 
                                  tapping 
---------10-12-17-12-10--10------19/2119---17-14-17---17-14-12--12-14-17---- 
-------14--------------14--------------------------------------14------------ 
-11-------------------------------------------------------------------------- 
----------------------------------------------------------------------------- 
----------------------------------------------------------------------------- 
----------------------------------------------------------------------------- 
 
--17-12-----1512-10^12---12-10--------12-7---9-12-14-12--17-14-17-12-------- 
-------14----------------------12-10-------10------------------------14------ 
------------------------------------12--------------------------------------- 
----------------------------------------------------------------------------- 
----------------------------------------------------------------------------- 
----------------------------------------------------------------------------- 
 
 
--------------------------------------------------------------14-17-14-15-14- 
-12-14-12-------------------------------12-14-12------------15--------------- 
---------14-11^13^11----------------------------11--------14----------------- 
--------------------14~-----------9-/11-----------12------------------------- 
--------------------------------7-------------------14-/12------------------- 
------------------------------5---------------------------------------------- 
 
--------------17----19---19-----15---15--15----19--19--19---12-12-12-12---14- 
-17-17b~--------------------------------------------------------------------- 
--------------14---/16---16----12---12--12---/16--16--16--9--9--9--9---/11- 
----------------------------------------------------------------------------- 
----------------------------------------------------------------------------- 
----------------------------------------------------------------------------- 
 
-14--14--14---10--10-10-------------------------------17-21-17--------------- 
----------------------------------------------------17--------22-17-19------- 
-11--11--11--7---7--7----9-7---------------------18------------------------- 
------------------------------9-7-7~------------19--------------------------- 
-------------------------------------------16-19----------------------------- 
----------------------------------------------------------------------------- 
 
-14-12-10--10---10-5--------------------------------------------------------- 
---------14---------5-7------------------------------------------------------ 
------------------------9-7-6-7-6----------6----------7-------12----9--9b---- 
---------------------------------7----------75--7b-------9b----------------- 
-----------------------------------7-9-75----------------------------------- 
----------------------------------------------------------------------------- 
 
------------------------------------------------12----------------17-14------ 
----------------------------------------12-14-15--15-14-12-------------17-14- 
-rb--9--7-6~--------------7-9-11-9-7---------------------14-12-------------- 
---------------------7-9-11----------11-------------------------------------- 
----------------------------------------------------------------------------- 
----------------------------------------------------------------------------- 
 
-----------------19---------------------------------------------------------- 
---------------17--17-15----------------------------------------------------- 
-16-14-------------------16-14---16-14----------7-9-7--7~--7-64-4-6~-------- 
------16-14-------------------15------15-14~--------------------------------- 
-----------16---------------------------------------------------------------- 
----------------------------------------------------------------------------- 
 
----------------------------------------------------------------------------- 
----------------------------------------------------------------------------- 
-2-2--/5~------------------------------------------------------------------- 
----------------------------------------------------------------------------- 
----------------------------------------------------------------------------- 
----------------------------------------------------------------------------- 
 guitar 1                       1/2 
----------------------------------------------------------------------------- 
----------------------------------------------------------------------------- 
--------------------------------------------------------------12-11-11~------ 
--8---8~----------9b----9~-----11b--11~-------14b---14~---------------------- 
----------------------------------------------------------------------------- 
----------------------------------------------------------------------------- 
guitar 2          1 1/2         1/2 
----------------------------------------------------------------------------- 
--------------------------------------------------------------15-14-14~------ 
--11--11~--------12b----12~----15b--15~-------16b---16~---------------------- 
----------------------------------------------------------------------------- 
----------------------------------------------------------------------------- 
----------------------------------------------------------------------------- 
 
guitar 1 
   1 1/2 
----------------------------------------------------------------------------- 
----------------------------------------------------------------------------- 
-12b--12~------------15-16-15-15~---------18--16--16~------------------------ 
----------------------------------------------------------------------------- 
----------------------------------------------------------------------------- 
----------------------------------------------------------------------------- 
 
guitar 2 
 1 1/2 
----------------------------------------------------------------------------- 
-17b--17~-----------19-20-19-19~---------23--20--20~------------------------- 
----------------------------------------------------------------------------- 
----------------------------------------------------------------------------- 
----------------------------------------------------------------------------- 
----------------------------------------------------------------------------- 
 
 hmm.. backwards guitar? tabbed it anyway... 
                              1/2       1 1/2     1/2 
----------------------------------------------------------------------------- 
----------------------------------------------------------------------------- 
---------------------------3--3b---rb--b-------rb-b---rb--3-4-6-3-4-6---/7-6- 
-----------------------5----------------------------------------------------- 
----------------------------------------------------------------------------- 
-0--(dive)--release---------------------------------------------------------- 
                           w/bar                               w/bar 
----------------------------------------------------------------------------- 
----------------------------------------------------------------------------- 
-7--9-dive-w/bar--9-7-6--9------9-11--11^12^11^12-11--11-12--14------15~----- 
----------------------------------------------------------------------------- 
----------------------------------------------------------------------------- 
----------------------------------------------------------------------------- 
                               w/bar -----------> 
------------------------------10--12--14--15---18----^15--------------------- 
-12-14-12-14--14^15^14^15-14-----------------------------17b--17b--rb-14----- 
----------------------------------------------------------------------------- 
----------------------------------------------------------------------------- 
----------------------------------------------------------------------------- 
----------------------------------------------------------------------------- 
                                                                    1/2 
---------------------------------19b--19b------------------------------------ 
-17b---17b--rb--14--17b--17b------------------------------------------------- 
--------------------------------------------(16b)---rb--15-16~----(15b)-rb--- 
----------------------------------------------------------------------------- 
----------------------------------------------------------------------------- 
----------------------------------------------------------------------------- 
                                             1/2 
----------------------------------------------------------------------------- 
----------------------------------------------------------------------------- 
-13--11b--11b~-----13-15--14b------~-------(15b)---rb-13---16b~-------------- 
----------------------------------------------------------------------------- 
----------------------------------------------------------------------------- 
----------------------------------------------------------------------------- 
                                  1/2 
----------------------------------------------------------------------------- 
----------------------------------------------------------------------------- 
-(16b)--rb--15-16~---16~--------(15b)---rb--13---11b---11b~------13--15------ 
----------------------------------------------------------------------------- 
----------------------------------------------------------------------------- 
----------------------------------------------------------------------------- 
    gradual bend 1 1/2 step 
(18b)------------------------------------------------------------------------ 
----------------------------------------------------------------------------- 
-15b------------------------------------------------------------------------- 
----------------------------------------------------------------------------- 
----------------------------------------------------------------------------- 
----------------------------------------------------------------------------- 
 
----------------------------------------------------------------------------- 
----------------------------------------------------------------------------- 
----------------------------------------------------------------------------- 
-------------------------------------------------4---7----------------------- 
-------------------------------------------------4---7----------------------- 
-2-2-2-2-3-2-2-2-2-2-2-2-3-2-2-2-2-2-2-2-3-2-2-2-2--/5----------------------- 
 
----------------------------------------------------------------------------- 
----------------------------------------------------------------------------- 
----------------------------------------------------------------------------- 
----------------------------------------------------------------------------- 
---------------------------------4-4-7--3-2-2-8-7---------------------------- 
-2-2-2-2-3-2-2-2-2-3-2-2-2-------2-2-5-1-0-0-6-5---------------------------- 
 
----------------------------------------------------------------------------- 
----------------------------------------------------------------------------- 
----------------------------------------------------------------------------- 
-------------------------------------------------4---7----------------------- 
-------------------------------------------------4---7----------------------- 
-2-2-2-2-3-2-2-2-2-2-2-2-3-2-2-2-2-2-2-2-3-2-2-2-2--/5----------------------- 
 
----------------------------------------------------------------------------- 
----------------------------------------------------------------------------- 
----------------------------------------------------------------------------- 
----------------------------------------------------------------------------- 
---------------------------------4-4-7--3-2-2-8-7---------------------------- 
-2-2-2-2-3-2-2-2-2-3-2-2-2-------2-2-5-1-0-0-6-5---------------------------- 
 
 
 
----------------------------------------------------------------------------- 
----------------------------------------------------------------------------- 
--bass-+-drums-+-vocals------------------------------------------------------ 
----------------------------------------------------------------------------- 
----------------------------------------------------------------------------- 
----------------------------------------------------------------------------- 
 
----------------------------------------------------------------------------- 
----------------------------------------------------------------------------- 
--------------------6------9-----------------7---9---6---7------------------- 
-2----------4---7---6------9---2-------------7---9---6---7------------------- 
-2---2--2---4---7---4---/--7---2--2--2--2----5--/7---4--/5------------------- 
-0---0--0---2--/5--------------0--0--0--0------------------------------------ 
 
----------------------------------------------------------------------------- 
----------------------------------------------------------------------------- 
--------------------6------9-----------------7--7--6--5---------------------- 
-2----------4---7---6------9---2-------------7--7--6--5---------------------- 
-2---2--2---4---7---4---/--7---2--2--2--2----5--5-4-3---------------------- 
-0---0--0---2--/5--------------0--0--0--0------------------------------------ 
 
----------------------------------------------------------------------------- 
----------------------------------------------------------------------------- 
--------------------6------9-----------------7---9---6---7------------------- 
-2----------4---7---6------9---2-------------7---9---6---7------------------- 
-2---2--2---4---7---4---/--7---2--2--2--2----5--/7---4--/5------------------- 
-0---0--0---2--/5--------------0--0--0--0------------------------------------ 
 
----------------------------------------------------------------------------- 
----------------------------------------------------------------------------- 
--------------------6------9-----------------7--7--6--5---------------------- 
-2----------4---7---6------9---2-------------7--7--6--5---------------------- 
-2---2--2---4---7---4---/--7---2--2--2--2----5--5-4-3---------------------- 
-0---0--0---2--/5--------------0--0--0--0------------------------------------ 
 
----------------------------------------------------------------------------- 
----------------------------------------------------------------------------- 
--------------------6------9-----------------7---9---6---7------------------- 
-2----------4---7---6------9---2-------------7---9---6---7------------------- 
-2---2--2---4---7---4---/--7---2--2--2--2----5--/7---4--/5------------------- 
-0---0--0---2--/5--------------0--0--0--0------------------------------------ 
 
----------------------------------------------------------------------------- 
----------------------------------------------------------------------------- 
--------------------6------9-----------------7--7--6--5---------------------- 
-2----------4---7---6------9---2-------------7--7--6--5---------------------- 
-2---2--2---4---7---4---/--7---2--2--2--2----5--5-4-3---------------------- 
-0---0--0---2--/5--------------0--0--0--0------------------------------------ 
 
----------------------------------------------------------------------------- 
----------------------------------------------------------------------------- 
--------------------6------9-----------------7---9---6---7------------------- 
-2----------4---7---6------9---2-------------7---9---6---7------------------- 
-2---2--2---4---7---4---/--7---2--2--2--2----5--/7---4--/5------------------- 
-0---0--0---2--/5--------------0--0--0--0------------------------------------ 
 
----------------------------------------------------------------------------- 
----------------------------------------------------------------------------- 
--------------------6------9-----------------7--7--6--5---------------------- 
-2----------4---7---6------9---2-------------7--7--6--5---------------------- 
-2---2--2---4---7---4---/--7---2--2--2--2----5--5-4-3---------------------- 
-0---0--0---2--/5--------------0--0--0--0------------------------------------ 
 
         8x 
----------------------------------------------------------------------------- 
----------------------------------------------------------------------------- 
--------7--7---6---5--------------------------------------------------------- 
--------7--7---6---5--------------------------------------------------------- 
--3--3--5--5--4--3--------------------------------------------------------- 
--1--1----------------------------------------------------------------------- 
 
       10x 
----------------------------------------------------------------------------- 
----------------------------------------------------------------------------- 
-------------7--7---6----5--------------------------------------------------- 
--3----------7--7---6----5--------------------------------------------------- 
--3---3--3---5--5--4----3--------------------------------------------------- 
--1---1--1------------------------------------------------------------------- 
 
----------------------------------------------------------------------------- 
----------------------------------------------------------------------------- 
----------------------------------------------------------------------------- 
--4-------------------------------------------------------------------------- 
--4---3--3------------------------------------------------------------------- 
--2---1--1------------------------------------------------------------------- 
 
_______________________________________________________ 
Contribuição: Caio Henrique Leal([email protected]) 

		  

See also:

tabs Pantera - This Love tabs Avenged Sevenfold - Buried Alive tabs Rainbow - Long Live Rock N' Roll tabs Avenged Sevenfold - Dear God tabs Slipknot - Vermilion Pt.1 tabs Marilyn Manson - Sweet Dreams (complete)
e-chords

Other versions:

tabs Cacophony - X-Ray Eyes
auto scroll beats size up size down change color hide chords drawings
tab show chords e-chords YouTube Clip e-chords hide all tabs e-chords go to top tab

share