Cacophony

Perpetual Burn

Cacophony

tabs Beginner beginner

save to print version add songbook text version e-mail correct tuner
chordsukulelecavacokeyboardtabbassdrumsharmonicaflute Guitar Pro
close

there isn't a video lesson for this song

chords

Perpetual Burn

	  		 
-17-12----------------12-17----17-12----------------12-17---17-12------------ 
------15------------15--------------15------------15-------------15---------- 
--------16-12--12-16------------------16-12--12-16-----------------16-12----- 
-------------14----------------------------14---------------------------14--- 
----------------------------------------------------------------------------- 
----------------------------------------------------------------------------- 
 
-17-12----------------12-17----17-12----------------12-17---17-12------------ 
------15------------15--------------15------------15-------------15---------- 
--------17-12--12-17------------------17-12--12-17-----------------17-12----- 
-------------15----------------------------15---------------------------15--- 
----------------------------------------------------------------------------- 
----------------------------------------------------------------------------- 
 
-16-11----------------11-16----16-11----------------11-16---16-11------------ 
------15------------15--------------15------------15-------------15---------- 
--------14-12--12-14------------------14-12--12-14-----------------14-12----- 
-------------13----------------------------13---------------------------13--- 
----------------------------------------------------------------------------- 
----------------------------------------------------------------------------- 
 
                             
-17-12----------------12-17----17-12----------------12-17-------------------- 
------15------------15--------------15------------15------------------------- 
--------16-12--12-16------------------16-12--12-16--------------------------- 
-------------14----------------------------14-------------------------------- 
----------------------------------------------------------------------------- 
----------------------------------------------------------------------------- 
 
-17-12----------------12-17----17-12----------------12-17-------------------- 
------15------------15--------------15------------15------------------------- 
--------16-12--12-16------------------16-12--12-16--------------------------- 
-------------14----------------------------14-------------------------------- 
----------------------------------------------------------------------------- 
----------------------------------------------------------------------------- 
 
 
-17-16-17-20-17-16----------------------------------------------------------- 
------------------17-18-17-15------------------------------------------------ 
-----------------------------17-16-14-16-13~--13-14-16-17-16-14-13----------- 
------------------------------------------------------------------15-14------ 
----------------------------------------------------------------------------- 
----------------------------------------------------------------------------- 
 
--------------------------12-17-12----------8-12-8----------12--------------- 
------------------------13--------13------10------10------13--15-13-12------- 
----------------------14------------14---9----------9---14------------14-13-- 
----------------------------------------------------------------------------- 
-15-14-12-11----------------------------------------------------------------- 
------------13-12~----------------------------------------------------------- 
 
----------------------------------------------------------------8-13-8------- 
--------------------------------------------------------------10------10--10- 
-13-14-16-17-16-14-13---------------------------------------10----------10--- 
----------------------15-14-------------------------------10----------------- 
----------------------------15-14-12-11--12~---------8-12-------------------- 
---------------------------------------12--------5-8------------------------- 
 
--8-13-8--------------------8---17-12--------------------12------------------ 
--------10----------------10---------13----------------13-------------------- 
----------10-------------9-------------14------------14---------------------- 
------------10-------7-10----------------14--------14------------------------ 
--------------12----7----------------------15-12-15-------------------------- 
-----------------5-8--------------------------------------------------------- 
 
------------------------------------------7-12-7-7-8-------------------------- 
---------------10-7----7-7-4----4--------9----------10--10--10--10------------ 
-----------8-11----8--8------5-5--------9-------------10--10------------------ 
-------7-10---------10--------7--------9----------------------7--------------- 
----6-9----------------------------7-11--------------------------------------- 
-5-8-------------------------------------------------------------------------- 
 
--------7-12-7-7-13-8-------------------3-8-3-7-4---------------3-8-3-7------ 
-------9-------------10----------------5---------5-------------5------------- 
------9----------------10-------------5-----------4-----------5-------------- 
-----9-------------------10----------5-------------6---------5--------------- 
-7-11----------------------12-8-6-3-7---------------7-5-7-3-7---------------- 
----------------------------------------------------------------------------- 
 
-4---4--12-8-------------------------------------17-15-13-------------------- 
--5-5-------10-------------------13-10-----13------------17-15-13------------ 
---4----------9--------5---9--------------9--9-------------------16-14-13---- 
---------------10---------7-7-/10-----10-7----------------------------------- 
-----------------12---7-7---------------------------------------------------- 
---------------------5---8--------------------------------------------------- 
 
----------------------------------------------------------------------------- 
----------------------------------------------------------------------------- 
-10-9-7---------------------------------------------------------------------- 
-------10-9-7-6-------------------------------------------------------------- 
---------------8-7-5--------------------------------------------------------- 
--------------------8-7-5-4~~-------------------------~---------------------- 
 
 
--17-16-17-20-17-16---------------------------------------------------------- 
-------------------17-18-17-15----------------------------------------------- 
------------------------------17-16-14-16-13~--13-14-16-17-16-14-13---------- 
-------------------------------------------------------------------15-14----- 
----------------------------------------------------------------------------- 
----------------------------------------------------------------------------- 
 
-------------------------12-17-12----------8-12-8----------12---------------- 
-----------------------13--------13------10------10------13---15-13-12------- 
---------------------14------------14---9----------9---14-------------14-13~- 
----------------------------------------------------------------------------- 
-15-14-12-11----------------------------------------------------------------- 
------------13-12~----------------------------------------------------------- 
 
----------------------------------------------------------------------------- 
----------------------------------------------------------------------------- 
-13-14-16-17-16-14-13-------------------------------------------------------- 
---------------------15-14--------------------------------------------------- 
---------------------------15-14-12-11--12~---------------------------------- 
--------------------------------------12------------------------------------- 
 
--------------------------------------------------10-13--16-13--------------- 
----7-----10-----7-----10-----7---------------9-12------------15------------- 
---7----7------7------7-----7-------------7-10------------------16-13-------- 
-0-----0-----0------0-----0-----------6-9----------------------------15------ 
-------------------------------9---5-8---------------------------------17---- 
----------------------------------------------------------------------------- 
 
---------14-17-14------------------------------------------------------------ 
-------14--------14---------------------------------------------------------- 
-14--14------------14---13-9------------------------------------------------- 
---16-----------------------11----------------------------------------------- 
------------------------------12--11-7-11------------------------------------ 
--------------------------------------9-------------------------------------- 
 
----------------9---14-9------9--14-10------10------------------------------- 
-----10---10-10---------10--10--------12--12--------------------------------- 
---11---11----------------11------------11----------------------------------- 
-11-------------------------------------------------------------------------- 
----------------------------------------------------------------------------- 
----------------------------------------------------------------------------- 
 
 
 
-----14-9------9-14-9------9-14-9------9-14-10------9-14-9------9------------ 
---------10--10------10--10------10--10-------12--12------10--10------------- 
-----------11----------11----------11-----------11----------11--------------- 
----------------------------------------------------------------------------- 
----------------------------------------------------------------------------- 
----------------------------------------------------------------------------- 
 
-14-16-17-12------12-17-13------12-17-12------12-17-12------12-17-12------12- 
------------13--13--------15--15--------13--13--------13--13--------13--13--- 
--------------14------------14------------14------------14------------14----- 
----------------------------------------------------------------------------- 
----------------------------------------------------------------------------- 
----------------------------------------------------------------------------- 
 
-17-13------12-17-12------12--17-19-20-17------17---15-12------12--13-10----- 
------15--15--------13--13---------------17--17----------12--12---------10--- 
--------14------------12-------------------17--------------12-------------10- 
----------------------------------------------------------------------------- 
----------------------------------------------------------------------------- 
----------------------------------------------------------------------------- 
 
---10---15-12------12---14-9------9---15-12------12--14-9------9-14-9------9-14 
-10----------13--13---------10--10---------13--13--------10--10------10--10---- 
---------------12-------------11-------------12------------11----------11------ 
------------------------------------------------------------------------------- 
------------------------------------------------------------------------------- 
------------------------------------------------------------------------------- 
 
-19-14----------------14-19----19-14----------------14-19---19-14------------ 
------17------------17--------------17------------17-------------17---------- 
--------18-14--14-18------------------18-14--14-18-----------------18-14----- 
-------------16----------------------------16---------------------------16--- 
----------------------------------------------------------------------------- 
----------------------------------------------------------------------------- 
 
-19-14----------------14-19----19-14----------------14-19---19-14------------ 
------17------------17--------------17------------17-------------17---------- 
--------19-14--14-19------------------19-14--14-19-----------------19-14----- 
-------------17----------------------------17---------------------------17--- 
----------------------------------------------------------------------------- 
----------------------------------------------------------------------------- 
 
 
 
--14-12------12-19----14-12------12-19-----14-12----------------------------- 
-------14--14--------------14--14---------------14--------------------------- 
---------14------------------14-------------------14------------------------- 
----------------------------------------------------16----------------------- 
----------------------------------------------------------------------------- 
----------------------------------------------------------------------------- 
 
--14-12------12-19----14-12------12-19----14-12------------------------------ 
-------15--15--------------15--15--------------15---------------------------- 
---------12------------------12------------------12-------------------------- 
----------------------------------------------------------------------------- 
----------------------------------------------------------------------------- 
----------------------------------------------------------------------------- 
 
-----5---14-9------9----17-14------14----12-10-9--------------10-14--19-14--- 
----7--------10--10----------14--14-------------12-10-9-----12------------15- 
---6-----------11--------------14-------------------------------------------- 
--7-------------------------------------------------------------------------- 
-9--------------------------------------------------------------------------- 
----------------------------------------------------------------------------- 
 
------------------10-14-10--------------15-14-12----------------------------- 
----------------12--------12----15-14-12------------------------------------- 
-16-11-------11------------11----------------------------------------------- 
-------12-------------------------------------------------------------------- 
---------14------------------------------------------------------------------ 
----------------------------------------------------------------------------- 
 
-14-9------9--17-14------14----21-17------17-21-17------17------------------- 
-----10--10--------14--14-----------19--19--------19--19--------------------- 
-------11------------14---------------18------------18----------------------- 
----------------------------------------------------------------------------- 
----------------------------------------------------------------------------- 
----------------------------------------------------------------------------- 
 
-22-17------------------13-17----19-17-15------------------------------------ 
------18--------------15-----------------18-17-15---------------------------- 
--------19-14------14---------------------------17-16-14-------------------- 
--------------15--15-------------------------------------17-15-14------------ 
----------------17-----------------------------------------------17-15-14---- 
----------------------------------------------------------------------------- 
 
-14-12-10--------------------------------------5-9-5---5---12-9-----9-------- 
---------14-12-10-----------------------------------5-5--------10-10--------- 
-------------------11-9-7----------------------------6-----------9----------- 
-------------------------11-9-7---------------------------------------------- 
--------------------------------9-7-5---------------------------------------- 
-------------------------------------9-7-54--------------------------------- 
 
-17-12--------------------12---13-9----9---21-16--------------------16-21-16- 
------14----------------14---------9--9---------18----------------18--------- 
--------14------------14------------10------------18------------18----------- 
----------14--------14------------------------------18--------18------------- 
------------16-12-16----------------------------------20-16-20--------------- 
----------------------------------------------------------------------------- 
 
                              tapping 4x      4x      4x      4x 
 
------------------------------------14-5-9--16-5-9--14-5-9--13-5-9----------- 
-18-------------------------------------------------------------------------- 
---18------------------------------------------------------------------------ 
-----18---------------------------------------------------------------------- 
-------20-16----------------------------------------------------------------- 
----------------------------------------------------------------------------- 
 
   4x      4x     4x    4x         4x     8x 
 
-10-2-5--7-2-5--9-2-5--9-1-4------9-2-5--8-2-5--12-2-5-11-2-5-10-2-5-9-2-5--- 
----------------------------------------------------------------------------- 
----------------------------------------------------------------------------- 
----------------------------------------------------------------------------- 
----------------------------------------------------------------------------- 
----------------------------------------------------------------------------- 
 
                             
                           t 4x    t    t 4x     t    t 4x    t 
---------------------------6-5-6---7----6-5-6----7----6-5-6---7----/16~------ 
-12-5-9--12-4-9--12-3-9------------------------------------------------------ 
----------------------------------------------------------------------------- 
----------------------------------------------------------------------------- 
----------------------------------------------------------------------------- 
----------------------------------------------------------------------------- 
 
----------------------------------17-14------------------------14------------ 
------10-15-10------10-15--------------15--------------------15-------------- 
----11--------11--11---------------------14----------------14---------------- 
--12------------12-------------------------16------------16------------------ 
---------------------------------------------17-12--12-17-------------------- 
--------------------------------------------------14------------------------- 
 
-12-9-----9--17-12------------12-9--------9-5----------------2-7-2----2------ 
-----10-10--------14--------------10---------5--------------3-----3-3-------- 
-------9------------14--------------9---------6------------4-------4--------- 
----------------------14-------------11--------7----------4------------------ 
------------------------16-12---------12--------7-4----2-5------------------- 
---------------------------------------------------5------------------------- 
 
 
--10-7---7---15-14-12--------------12----------10---------------12----------- 
------7-7------------15-14-12-14-15----10-12-14--14-12--12-14-15--15-14------ 
-------7--------------------------------------------------------------------- 
----------------------------------------------------------------------------- 
----------------------------------------------------------------------------- 
----------------------------------------------------------------------------- 
 
---------14----------------15--------------19-16------16----15-12------12---- 
-14-15-17--17-15---15-17-19--19-17--------------17--17-----------12--12------ 
--------------------------------------------------16---------------12-------- 
----------------------------------------------------------------------------- 
----------------------------------------------------------------------------- 
----------------------------------------------------------------------------- 
 
--12-7---------3-7---7-2---2----10-7---7-------14-10-------10---------------- 
------8-------5---------3-3---------7-7--------------12--12------------------ 
-------94---4-----------4-----------7-----------------11-------------------- 
----------5-5---------------------------------------------------------------- 
-----------7----------------------------------------------------------------- 
----------------------------------------------------------------------------- 
 
 
--14-19-14--14--14----14-9------9----9-6-------6-----------12-14-12---------- 
----------14--14----------11--11--------7-----7----12-14-15--------15-14----- 
----------------------------11-----------6---6------------------------------- 
------------------------------------------8-8-------------------------------- 
-------------------------------------------9--------------------------------- 
----------------------------------------------------------------------------- 
 
---------14-15-14----------------15-17-15----------------17-19-17------------ 
-14-15-17--------17-15---15-17-19--------19-17---17-19-20--------20-19------- 
----------------------------------------------------------------------------- 
----------------------------------------------------------------------------- 
----------------------------------------------------------------------------- 
----------------------------------------------------------------------------- 
 
-----------------------------------9-11-12-11-9------------------------------ 
----------------------------9-11-12------------------------------------------ 
-8-6------------------8-9-11------------------------------8-9-11-9-8--------- 
----9-8-9-8-6-----------------------------------11-9-8-9-11---------11-9-8-6- 
----------------------------------------------------------------------------- 
----------------------------------------------------------------------------- 
 
 
 
---|--------------------------------7-9-11-9-7----------------------------|-- 
---|-------------------------7-9-11---------------------------------------|-- 
-2x|--8-6--------------6-8-9------------------------------6-8-9-8-6-------|-- 
---|------9-8-9-8-6------------------------------9-8-6-8-9----------9-8-6-|-- 
---|----------------------------------------------------------------------|-- 
---|----------------------------------------------------------------------|-- 
 
 
-----------------------------------9-11-12-11-9------------------------------ 
----------------------------9-11-12------------------------------------------ 
-8-6------------------8-9-11------------------------------8-9-11-9-8--------- 
----9-8-9-8-6-----------------------------------11-9-8-9-11---------11-9-8-6- 
----------------------------------------------------------------------------- 
----------------------------------------------------------------------------- 
 
 
-----------------------------------9-11-12-11-9------------------------------ 
----------------------------9-11-12------------------------------------------ 
-8-6------------------8-9-11------------------------------8-9-11-9-8--------- 
----9-8-9-8-6-----------------------------------11-9-8-9-11---------11-9-8-6- 
----------------------------------------------------------------------------- 
----------------------------------------------------------------------------- 
 
 
 
---|--------------------------------7-9-11-9-7----------------------------|-- 
---|-------------------------7-9-11---------------------------------------|-- 
-2x|--8-6--------------6-8-9------------------------------6-8-9-8-6-------|-- 
---|------9-8-9-8-6------------------------------9-8-6-8-9----------9-8-6-|-- 
---|----------------------------------------------------------------------|-- 
---|----------------------------------------------------------------------|-- 
 
 
-----------------------------------9-11-12-11-9------------------------------ 
----------------------------9-11-12------------------------------------------ 
-8-6------------------8-9-11------------------------------8-9-11-9-8--------- 
----9-8-9-8-6-----------------------------------11-9-8-9-11---------11-9-8-6- 
----------------------------------------------------------------------------- 
----------------------------------------------------------------------------- 
 
------------11-16------14-12-11---------------------------------------------- 
----------12----------------------12-11----------------11-12--14---12-14-12- 
--------13-----------------------------13-12------12-13---------------------- 
------13------------------------------------14-13---------------------------- 
--11-14---------------------------------------------------------------------- 
----------------------------------------------------------------------------- 
 
---------------------------------11---12---11-12-11-9-11----------12-14-16-- 
-11-12---9-11-12-12b~----11-12-14--------------------------12-14-16---------- 
----------------------------------------------------------------------------- 
----------------------------------------------------------------------------- 
----------------------------------------------------------------------------- 
----------------------------------------------------------------------------- 
 
-16b~~---16-18-16-14--------------------------------------------------------- 
--------------------17-16-14------------------------------------------------- 
----------------------------16-15-13------------16-15-13-15-13--13----------- 
------------------------------------16-14---------------------16--16-14-16-14 
----------------------------------------------------------------------------- 
----------------------------------------------------------------------------- 
 
----------------------------------------------------------------------------- 
----------------------------------------------------------------------------- 
-----------------------------------11---------------------------------------- 
-13----14-13-11-14-13-11---11-13-14--13-14-13-11-13-11-----11-9-8-9-8-------- 
------------------------14----------------------------14--------------10----- 
----------------------------------------------------------------------------- 
 
----------------11--11------------------------------------------------------- 
------------12----12----12------------------------9-8-7---7------------------ 
--------13----13------13-----13------13----13----------9-8--9-8-7----7------- 
----13----13---------------13-----13---13----13-------------------9-8-9-8-6-8 
--11--14------------------------14-------14---------------------------------- 
----------------------------------------------------------------------------- 
 
 
---------9-12---14-12---12-9--9-12------------------------------------------- 
-------10----10------10-----10----------------------------------------------- 
------9---------------------------------------------------------------------- 
----11----------------------------------------------------------------------- 
--12------------------------------------------------------------------------- 
----------------------------------------------------------------------------- 
 
-12-7-9-7-------7-9-7---12-7-9-7-------7-9-7--------------------------------- 
---------9-7-7-9----------------9-7-7-9-------------------------------------- 
------------9----------------------9----------------------------------------- 
----------------------------------------------------------------------------- 
----------------------------------------------------------------------------- 
----------------------------------------------------------------------------- 
 
-20-15-17-15------------15-17-15----20-15-17-15------------15-17-15---------- 
------------17-15--15-17-----------------------17-15--15-17------------------ 
-----------------17---------------------------------17----------------------- 
----------------------------------------------------------------------------- 
----------------------------------------------------------------------------- 
----------------------------------------------------------------------------- 
 
 
-13^15^17^15^17^15^13----12^13^15^13^15^13^12----10^12^13^12^13^12^10-------- 
----------------------------------------------------------------------------- 
----------------------------------------------------------------------------- 
----------------------------------------------------------------------------- 
----------------------------------------------------------------------------- 
----------------------------------------------------------------------------- 
 
--------------------------------------------------------10-12-10------------- 
-12^13^15^13^15^13^12----10^12^13^12^13^12^10---10-12-13--------13-12-10----- 
------------------------------------------------------------------------12-10 
----------------------------------------------------------------------------- 
----------------------------------------------------------------------------- 
----------------------------------------------------------------------------- 
 
----------------------------------------------------------8-13-8------------- 
--------------------------------------------------------10------------------- 
-9---10-9-7----12-10-9--------------------------------10--------------------- 
-----------10---------12-10-9-----------------------10----------------------- 
-----------------------------12-10-8------------8-12------------------------- 
------------------------------------12-10-8-10------------------------------- 
 
--17-13--------------------13-17-13---20-17--------------17-13--------------- 
-------13----------------13----------------18-----------------13------------- 
---------14------------14--------------------17------17---------14----------- 
-----------15--------15------------------------19--19-------------15--------- 
-------------15-12-15----------------------------20-----------------15-12-15- 
----------------------------------------------------------------------------- 
 
--------13-----13-9-13-9-----------------9---12-10-8------------------------- 
------13----------------9---------------9-----------12-10-8------------------ 
----14-------------------10-----------10-------------------10-9-7------------ 
--15-----------------------11-------11---------------------------10-9-7------ 
-----------------------------11-8-11----------------------------------------- 
----------------------------------------------------------------------------- 
 
--8-12-8------15-12------12------20-15------15---15-12------12---12-8---8---- 
--------8----------13--13-------------17--17----------13--13---------8-8----- 
---------------------12-----------------17--------------12------------9------ 
----------------------------------------------------------------------------- 
----------------------------------------------------------------------------- 
----------------------------------------------------------------------------- 
 
-12-10-8--------------------------------------------------------------------- 
--------12-10-8---------------------------------------------------8-10-12/13- 
---------------10-9-7---------------5-7-9/10-9-7-----------7-9-10------------ 
---------------------10-9-7----5-7-9------------10-9-7-9-10------------------ 
----------------------------------------------------------------------------- 
----------------------------------------------------------------------------- 
 
--------------------------8-10-12-10-8-10-12--------------------------------- 
-12-10-------------8-10-12--------------------------------------------------- 
------12-10-9-10-12---------------------------------------------------------- 
----------------------------------------------------------------------------- 
----------------------------------------------------------------------------- 
----------------------------------------------------------------------------- 
 
-17-12----------------12-17----17-12----------------12-17---17-12------------ 
------15------------15--------------15------------15-------------15---------- 
--------16-12--12-16------------------16-12--12-16-----------------16-12----- 
-------------14----------------------------14---------------------------14--- 
----------------------------------------------------------------------------- 
----------------------------------------------------------------------------- 
 
-17-12----------------12-17----17-12----------------12-17---17-12------------ 
------15------------15--------------15------------15-------------15---------- 
--------17-12--12-17------------------17-12--12-17-----------------17-12----- 
-------------15----------------------------15---------------------------15--- 
----------------------------------------------------------------------------- 
----------------------------------------------------------------------------- 
 
-16-11----------------11-16----16-11----------------11-16---16-11------------ 
------15------------15--------------15------------15-------------15---------- 
--------14-12--12-14------------------14-12--12-14-----------------14-12----- 
-------------13----------------------------13---------------------------13--- 
----------------------------------------------------------------------------- 
----------------------------------------------------------------------------- 
 
                             
-17-12----------------12-17----17-12----------------12-17-------------------- 
------15------------15--------------15------------15------------------------- 
--------16-12--12-16------------------16-12--12-16--------------------------- 
-------------14----------------------------14-------------------------------- 
----------------------------------------------------------------------------- 
----------------------------------------------------------------------------- 
 
-17-12----------------12-17----17-12----------------12-17-------------------- 
------15------------15--------------15------------15------------------------- 
--------16-12--12-16------------------16-12--12-16--------------------------- 
-------------14----------------------------14-------------------------------- 
----------------------------------------------------------------------------- 
----------------------------------------------------------------------------- 
 
-13-8------8-13-----13-8------8-13-----8-5---5------------------------------- 
-----10--10-------------10--10------------5-5-------------------------------- 
-------10-----------------10---------------5--------------------------------- 
----------------------------------------------------------------------------- 
----------------------------------------------------------------------------- 
----------------------------------------------------------------------------- 
 
-5-2-------2---8-5-------5---11-8------8---14-11------------11--17-14-------- 
----4-----4-------7-----7--------10--10---------13--------13---------16------ 
-----5-2-5---------8-5-8-----------11-------------14-11-14-------------17-14- 
----------------------------------------------------------------------------- 
----------------------------------------------------------------------------- 
----------------------------------------------------------------------------- 
 
-----14-----20-17------17---------------------------------------------------- 
---16------------19--19------------------------------------------------------ 
-17----------------20-------------------------------------------------------- 
----------------------------------------------------------------------------- 
----------------------------------------------------------------------------- 
----------------------------------------------------------------------------- 
 
  E                     A               D                  Bm             D 
----------------------------------------------------------------------------- 
----------------------------------------------------------------------------- 
-----9----------------------------7-------------------------7---------------- 
--6-9-9-6-------------7--------4-7-7-4-----------9-------4-7-7-4------------- 
-7-------7---------4-7-7-4----5-------5-------5-9-9-5---5-------5------------ 
------------------5-------5------------------7-------7----------------------- 
 
  G                C             A          C                     F 
----------------------------------------------------------------------------- 
----------------------------------------------------------------------------- 
-------------------5------------------------5-------------------------------- 
------5---------2-5-5-2----------7-------2-5-5-2-------------3--------------- 
---2-5-5-2-----3-------3------4-7-7-4---3-------3--------0-3---3-0----------- 
--3-------3------------------5-------5------------------1---------1---------- 
 
  A#           G 
-------------------------------------------8-12-8---------------------------- 
------------------------------------------8------8--------------------------- 
-----------------------------------------9--------9-------------------------- 
------8-------------5------------------10----------10------------------------ 
---5-8-8-5------2-5--5-2-----------7-10--------------10-7-------------------- 
--6-------6----3--------3---------------------------------------------------- 
 
-------------12-15-12-------------------------15-20-15----------------------- 
-----------13--------13---------------------17--------17--------------------- 
---------12------------12-----------------17------------17------------------- 
-------14----------------14-------------17----------------17----------------- 
--10-15--------------------15-10---15-19--------------------19-15------------ 
----------------------------------------------------------------------------- 
 
                         dive w/bar         w/bar 
-------------15-20~---------------------22b~--------------------------------- 
-----------17---------------------------------------------------------------- 
---------17------------------------------------------------------------------ 
-------17-------------------------------------------------------------------- 
--15-19---------------------------------------------------------------------- 
----------------------------0----------------------------------------------- 
 
 
_______________________________________________________ 
Contribuição: Caio Henrique Leal([email protected]) 

		  

Full key step upFull key step up
Half key step upHalf key step up
Half key step downHalf key step down
Full key step downFull key step down
hide glossary

See also:

tabs Pantera - This Love tabs Avenged Sevenfold - Buried Alive tabs Rainbow - Long Live Rock N' Roll tabs Avenged Sevenfold - Dear God tabs Slipknot - Vermilion Pt.1 tabs Marilyn Manson - Sweet Dreams (complete)
e-chords

Other versions:

tabs Cacophony - Perpetual Burn
auto scroll beats size up size down change color hide chords drawings
tab show chords e-chords YouTube Clip e-chords hide all tabs e-chords go to top tab

share