Cacophony

Burn The Ground

Cacophony

tabs

save to print version add songbook text version e-mail correct tuner
chordsukulelecavacokeyboardtabbassdrumsharmonicaflute Guitar Pro
close

there isn't a video lesson for this song

chords

Burn The Ground

	  		 
----------------------------------------------------------------------------- 
----------------------------------------------------8-6---------------------- 
----------------------------------------------6-4------7---7-8--5^7^5-5------ 
----------------------------------------5-3-------5------------------8-6-8--- 
-------------------------------------------5--------------------------------- 
-0-0-0-0-0-0-0-0-0-0-0-0-0-0-0-0-0-0-0--------------------------------------- 
 
----------------------------------------------------------------------------- 
----------------------------------------------------8-6---------------------- 
----------------------------------------------6-4------7---7-8--5^7^5-5------ 
----------------------------------------5-3-------5------------------8-6-8--- 
-------------------------------------------5--------------------------------- 
-0-0-0-0-0-0-0-0-0-0-0-0-0-0-0-0-0-0-0--------------------------------------- 
 
----------------------------------------------------------------------------- 
----------------------------------------------------------------------------- 
-------------------------------------------5-3-----2-5-4------6-9-8-------10- 
---------------------------------------3-6--------5----------6----------10--- 
----------------------------------------------------------------------------- 
-0-0-0-0-0-0-0-0-0-0-0-0-0-0-0-0-0-0-0--------------------------------------- 
 
----------------------------------------------------------------------------- 
-----------10-13-12---------------------------------------------------------- 
-13-12----9------------------------------------------------------------------ 
----------------------------------------------------------------------------- 
----------------------9---10----11--12------13--14---13--12------11--10------ 
---------------------8--13----12--11------10--9----10----------12--13-------- 
                                       
----------------------------------------------------------------------------- 
----------------------------------------------------------------------------- 
----------------------------------------------------------------------------- 
---9---8--------------------------------------------------------------------- 
------------12---11----10---9---10--11---12--13--14~------------------------- 
-8---10---10---11----12---13--12--10---10--10--10---------------------------- 
  
     tapping          tapping 
-7-5-12-10-7-5-8-7-5--12-10-8-7-5-7-8-7-5------12-10-7-5-8-7-5-7------------- 
------------------------------------------------------------------7---------- 
--------------------------------------------------------------------7-6-4---- 
--------------------------------------------------------------------------5-4 
----------------------------------------------------------------------------- 
----------------------------------------------------------------------------- 
 
----------------------------------------------------------------------------- 
----------------------------------------------------------------------------- 
----------------------------------------------------------------------------- 
---------------5--4-------------7-5-------------5--4------------------------- 
-2-2-4-5--2-2--3-2-2-2-5-7-2-2-53-2-2-4-5-2-2-3-2-2-2-5-7--7-8-8-7-------- 
-0-0-2/3--0-0-------0-0-3/5-0-0-----0-0-2/3-0-0------0-0-3/5--5/6-65-------- 
 
----------------------------------------------------------------------------- 
----------------------------------------------------------------------------- 
----------------------------------------------------------------------------- 
---------------5--4-------------7-5-------------5--4------------------------- 
-2-2-4-5--2-2--3-2-2-2-5-7-2-2-53-2-2-4-5-2-2-3-2-2-2-5-7--7-8-8-7-------- 
-0-0-2/3--0-0-------0-0-3/5-0-0-----0-0-2/3-0-0------0-0-3/5--5/6-65-------- 
 
 4x 
----------------------------------------------------------------------------- 
----------------------------------------------------------------------------- 
----------------------------------------------------------------------------- 
-----------------------------5----------------------------------------------- 
-2-2-4-5-2-2-2-2-4-5-2-2-2-2-3----------------------------------------------- 
-0-0-2/3-0-0-0-0-2/3-0-0-0-0------------------------------------------------- 
                                                         harmonics w/bar 
----------------------------------------------------------------------------- 
----------------------------------------------------------------------------- 
----------------------------------------------------------3.6---------------- 
----------------------------------------------------------------------------- 
-2--------------------------------------------------------------------------- 
-0--------------------------------------------------------------------------- 
 
----------------------------------------------------------------------------- 
----------------------------------------------------------------------------- 
----------------------------------------------------------------------------- 
---------------5--4-------------7-5-------------5--4------------------------- 
-2-2-4-5--2-2--3-2-2-2-5-7-2-2-53-2-2-4-5-2-2-3-2-2-2-5-7--7-8-8-7-------- 
-0-0-2/3--0-0-------0-0-3/5-0-0-----0-0-2/3-0-0------0-0-3/5--5/6-65-------- 
 
                                                         harmonics w/bar 
----------------------------------------------------------------------------- 
----------------------------------------------------------------------------- 
-9------------------------7-----------------------------------4-------------- 
-9------------------------7-------------------------------------------------- 
-7------------------------5-------------------------------------------------- 
-0--------------------------------------------------------------------------- 
 
----------------------------------------------------------------------------- 
----------------------------------------------------------------------------- 
----------------------------------------------------------------------------- 
---------------5--4-------------7-5-------------5--4------------------------- 
-2-2-4-5--2-2--3-2-2-2-5-7-2-2-53-2-2-4-5-2-2-3-2-2-2-5-7--7-8-8-7-------- 
-0-0-2/3--0-0-------0-0-3/5-0-0-----0-0-2/3-0-0------0-0-3/5--5/6-65-------- 
 
 
----------------------------------------------------------------------------- 
----------------------------------------------------------------------------- 
----------------------------------------------------------------------------- 
----------------------------------------------------------------------------- 
-4-------------4-----------4-----------4-----------4------7-----7---7-----7-- 
-2-2-2-2-2-2-2-2-----2-2-2-2-----2-2-2-2-----2-2-2-2-----/5-5-5-5---5-5-5-5-- 
 
----------------------------------------------------------------------------- 
----------------------------------------------------------------------------- 
---------------------------------3--4----7----------------------------------- 
---------------------------------3--4----7----------------------------------- 
--7-----7---------2--------------1--2---/5----------------------------------- 
--5-5-5-5---------0--------------------------------------------------------- 
 
 2x 
----------------------------------------------------------------------------- 
----------------------------------------------------------------------------- 
------------------------------5--------------------------------7------------- 
------------------------------5--------------------------------7------------- 
-2-2-4-5--2-2-2-2-4-5-2-2-2-2-3---2-2-4-5--2-2-2-2-4-5-2-2-2-2-5------------- 
-0-0-2/3--0-0-0-0-2/3-0-0-0-0-----0-0-2/3--0-0-0-0-2/3-0-0-0-0--------------- 
 
 
                                                         harmonics w/bar 
----------------------------------------------------------------------------- 
----------------------------------------------------------------------------- 
----------------------------------------------------------3.6---------------- 
----------------------------------------------------------------------------- 
-2--------------------------------------------------------------------------- 
-0--------------------------------------------------------------------------- 
 
----------------------------------------------------------------------------- 
----------------------------------------------------------------------------- 
----------------------------------------------------------------------------- 
---------------5--4-------------7-5-------------5--4------------------------- 
-2-2-4-5--2-2--3-2-2-2-5-7-2-2-53-2-2-4-5-2-2-3-2-2-2-5-7--7-8-8-7-------- 
-0-0-2/3--0-0-------0-0-3/5-0-0-----0-0-2/3-0-0------0-0-3/5--5/6-65-------- 
 
                                                         harmonics w/bar 
----------------------------------------------------------------------------- 
----------------------------------------------------------------------------- 
-9------------------------7-----------------------------------4-------------- 
-9------------------------7-------------------------------------------------- 
-7------------------------5-------------------------------------------------- 
-0--------------------------------------------------------------------------- 
 
----------------------------------------------------------------------------- 
----------------------------------------------------------------------------- 
----------------------------------------------------------------------------- 
---------------5--4-------------7-5-------------5--4------------------------- 
-2-2-4-5--2-2--3-2-2-2-5-7-2-2-53-2-2-4-5-2-2-3-2-2-2-5-7--7-8-8-7-------- 
-0-0-2/3--0-0-------0-0-3/5-0-0-----0-0-2/3-0-0------0-0-3/5--5/6-65-------- 
 
----------------------------------------------------------------------------- 
----------------------------------------------------------------------------- 
----------------------------------------------------------------------------- 
----------------------------------------------------------------------------- 
-4-------------4-----------4-----------4-----------4------7-----7---7-----7-- 
-2-2-2-2-2-2-2-2-----2-2-2-2-----2-2-2-2-----2-2-2-2-----/5-5-5-5---5-5-5-5-- 
 
----------------------------------------------------------------------------- 
----------------------------------------------------------------------------- 
---------------------------------3--4----7----------------------------------- 
---------------------------------3--4----7----------------------------------- 
--7-----7---------2--------------1--2---/5----------------------------------- 
--5-5-5-5---------0--------------------------------------------------------- 
 
 4x 
----------------------------------------------------------------------------- 
----------------------------------------------------------------------------- 
------------------------------5--------------------------------7------------- 
------------------------------5--------------------------------7------------- 
-2-2-4-5--2-2-2-2-4-5-2-2-2-2-3---2-2-4-5--2-2-2-2-4-5-2-2-2-2-5------------- 
-0-0-2/3--0-0-0-0-2/3-0-0-0-0-----0-0-2/3--0-0-0-0-2/3-0-0-0-0--------------- 
 
                                 w/bar 
------------------------8^5^8^5^8^5^8^5^8^5^8^5^8-etc------------------------ 
----------------------------------------------------------------------------- 
----------------------------------------------------------------------------- 
----------------------------------------------------------------------------- 
-2--------------------------------------------------------------------------- 
-0--------------------------------------------------------------------------- 
 
-------------13-15-17-18-13------13-18-13------------------------------------ 
-----------15--------------15--15--------15---16-14-16-14--14---------------- 
-------/-15------------------15------------15------------15--15-14-15~------- 
--------------------------------------------------------------------------13~ 
----------------------------------------------------------------------------- 
----------------------------------------------------------------------------- 
 
----------------------------------------------------------------------------- 
----------------------------------------------------------------------------- 
--------------------------------------15-13-15-16-15-16-----17-16-17-19-17-19 
-13-12-13-15-13-15--16-15-16-18-16-18---------------------------------------- 
----------------------------------------------------------------------------- 
----------------------------------------------------------------------------- 
 
 
------------------------16-14-16-17----20-16--------------------------------- 
---16-15-16-18-16-18------------------------16------------------12-15-12----- 
----------------------------------------------17--------------12------------- 
------------------------------------------------18----------12--------------- 
--------------------------------------------------18-15---------------------- 
-------------------------------------------------------16-------------------- 
 
--------------------10-11-13-11-10-11-10----------8-10-11-10-8-10-8--8------- 
--/20-15--------------------------------13-11-13-------------------11-11-10-- 
--------16------------------------------------------------------------------- 
----------17~---------------------------------------------------------------- 
----------------------------------------------------------------------------- 
----------------------------------------------------------------------------- 
 
----------------------------------------------------------------------------- 
-11-10-8-11-10-8---8-10-11-10-8-10-8----------------------------------------- 
----------------10------------------10--12-10-8-10-8----5-7-8-7-5------------ 
----------------------------------------------------12-----------8-7~-------- 
----------------------------------------------------------------------------- 
----------------------------------------------------------------------------- 
 
-------------9---12-15-15b~-------20b---rb---19-18--17-18-17----------------- 
--------8-10------------------------------------------------18-17~----------- 
----6-9---------------------------------------------------------------------- 
---7------------------------------------------------------------------------- 
----------------------------------------------------------------------------- 
----------------------------------------------------------------------------- 
 
-----------------------------------------------------------13-10------------- 
--/15-14-13-12--11-10-9-10-11-10-11-10-9-10---10-11-10---9------10-9--------- 
------------------------------------------------------10------------10-9-7~-- 
----------------------------------------------------------------------------- 
----------------------------------------------------------------------------- 
----------------------------------------------------------------------------- 
 
----------------------------------------------------------------------------- 
----------------------------------------------------------------------------- 
-------------------------------------------------------12-14-16-14-12--/14-12 
----------------9-10-12-/14-------------------12-14-16----------------------- 
--------8-10-12-----------------------12-14-15------------------------------- 
-8-10-12----------------------12-13-15--------------------------------------- 
 
-----------------------------------------------------------------5-3-5-3----- 
------------------------------------------------------------------------6---- 
-10--10-12-14-12-10----/12---^10^12^109-8-9~-------------------------------- 
---14---------------------------------------------------7~-----5------------- 
------------------------------------------(7~)-------3---------------------- 
----------------------------------------------------------------------------- 
 
----------------------------------------13b~----13-12-10--------------------- 
-5^3~-------------------8-10--12-13~--------------------13--13~-------------- 
--------------/9--7-9-10----------------------------------------------------- 
----------------------------------------------------------------------------- 
----------------------------------------------------------------------------- 
----------------------------------------------------------------------------- 
 
-------------------15b--------15-/1715-12^15^12--------------/16-15-14-13-- 
---15b-----rb---13--------------------------------15~------------------------ 
----------------------------------------------------------------------------- 
----------------------------------------------------------------------------- 
----------------------------------------------------------------------------- 
----------------------------------------------------------------------------- 
 
---------------------13-14-15-16-15-14-13------------------------------------ 
-16-15-14-13-14-15-16--------------------16-15-14-13------------16-15-14-13-- 
----------------------------------------------------16-15-14-13-------------- 
----------------------------------------------------------------------------- 
----------------------------------------------------------------------------- 
----------------------------------------------------------------------------- 
 
 
----------------------------------------------------------------------------- 
----------------------------------------------------------------------------- 
-16-15-14-13----------------------------------------------------------------- 
------------16-15-14-13------------------------------------------------------ 
-----------------------16-15-14-13------------------------------------------- 
----------------------------------16-15-14-13~------------------------------- 
                                               total Jasonism 
-------------------12-15-12^15^12---------------22b~---------20b-rb20-19-17-- 
--------9-11-13--14--------------14-11--------------------------------------- 
-7-9-11---------------------------------------------------------------------- 
----------------------------------------------------------------------------- 
----------------------------------------------------------------------------- 
----------------------------------------------------------------------------- 
 
-----------------17-19-20-17--20-17------------------------------------------ 
-20b~----------17------------------17---------------------------------------- 
-------------17----------------------17-14---------------------------------- 
-----------19------------------------------14-------------------------------- 
---------------------------------------------15------------------------------ 
-----------------------------------------------17-12/1512~------------------ 
                                               1/2 
----------------------------------------------------------------------------- 
-15b~------15--13------------------------------------------------------------ 
----------------------------------------------15b~--------------------------- 
------------------15-14-15-14-----17-----17-15------------------------------- 
-----------------------------17-15--15-17------------------------------------ 
----------------------------------------------------------------------------- 
 
--------------------------------------10-12-10------------------------------- 
-13-12-10-12-10---------------10-12-13--------13-12-10--------10-13-12-10-12- 
---------------12-10--9-10-12-------------------------12-10-9---------------- 
----------------------------------------------------------------------------- 
----------------------------------------------------------------------------- 
----------------------------------------------------------------------------- 
                                 1/2   1/2 
--------------------------------------------15b~------------12-17-12------12- 
-10----------------------------15b--rb-b------------------13--------13--13--- 
---12-10-9-10-9-10-9--9---------------------------------14------------14----- 
--------------------12-12-10-9----------------------------------------------- 
----------------------------------------------------------------------------- 
----------------------------------------------------------------------------- 
 
-17-12------12-17-12-----13-10-12-------------------------------------------- 
------13--13--------13------------13-10-------------------------------------- 
--------14------------14---------------12-10-10-9-10-9--9-------------------- 
------------------------------------------------------12-12-10--12-10-12-10-- 
----------------------------------------------------------------------------- 
----------------------------------------------------------------------------- 
 
----------------------------------------------------------------------------- 
----------------------------------------------------------------------------- 
----------/11b~-----13^14^13^14^13^11--11^9-------/11b~------15^14^12^14^12^- 
-9~-------------------------------------------------------------------------- 
----------------------------------------------------------------------------- 
----------------------------------------------------------------------------- 
                    1/2 
----------------------------------------------------------------------------- 
---------------------------------16^17^16^14^16^14-12^14^12------/14b---b--b- 
----------------/14b~-------------------------------------------------------- 
----------------------------------------------------------------------------- 
-15^13^15^13----------------------------------------------------------------- 
----------------------------------------------------------------------------- 
                                       1/2                 1/2 
----------------------------------------------------------------------------- 
----b--b--b--b-b-b--b(14b)~-----------15b~------15-13-15--15b~--------------- 
----------------------------------------------------------------------------- 
----------------------------------------------------------------------------- 
----------------------------------------------------------------------------- 
----------------------------------------------------------------------------- 
 
---16b~--------16-15---16~------15-13---15~----13^15^1311---11^13^15^11-13~- 
----------------------------------------------------------------------------- 
----------------------------------------------------------------------------- 
----------------------------------------------------------------------------- 
----------------------------------------------------------------------------- 
----------------------------------------------------------------------------- 
 
-11-13-15--13^15^1311------------/18b-----rb-18--16~-----15---(15b)-rb---13~ 
-----------------------15~--------------------------------------------------- 
----------------------------------------------------------------------------- 
----------------------------------------------------------------------------- 
----------------------------------------------------------------------------- 
----------------------------------------------------------------------------- 
 
--/16-15-13-15-13---15-13-11-10^11^10---13-11-10-11^13^1110---8-10-11-10-8-- 
----------------------------------------------------------------------------- 
----------------------------------------------------------------------------- 
----------------------------------------------------------------------------- 
----------------------------------------------------------------------------- 
----------------------------------------------------------------------------- 
 
 
--/13-11-10-13-11-10--------------------------------------------------------- 
--------------------13-11-13-11-10-13-9-9^8---------------------------------- 
--------------------------------------------8-7~----------------------------- 
----------------------------------------------------------------------------- 
----------------------------------------------------------------------------- 
----------------------------------------------------------------------------- 
 4x 
--------------------10-15---------------------------------------------------- 
-----------------12---------------------------------------------------------- 
---------------12------------------------------------------------------------ 
-------9---9-12-------------------------------------------------------------- 
-10--10-10------------------------------------------------------------------- 
---10------------------------------------------------------------------------ 
       2x 
-----------------10-13-------------10-13--/19-15------------------------15-19 
---------------12----------------12-------------15--------------------15----- 
-------------12----------------12-----------------16----------------16------- 
------9--9-12-----------9-12-12---------------------17------------17--------- 
10--10-10-------------10------------------------------17-14--14-17----------- 
--10----------------10-------------------------------------15---------------- 
        4x 
-----------------------8-13-------------------------------------------------- 
---------------------10------------------------------------------------------ 
-------------------10-------------------------------------------------------- 
------------7--7-10---------------------------------------------------------- 
--------8--8-8--------------------------------------------------------------- 
---------10------------------------------------------------------------------ 
 
------------------------------------------------10-13-10--/16-13------------- 
----------------------------/9-6-------6------12----------------15--------15- 
-------------7-4--------4-7-----7-----7-----13--------------------16-13-16--- 
-------3-6-3-----6-----6---------9-6-9--------------------------------------- 
----2-5-----------8-5-8------------------------------------------------------ 
-1-4------------------------------------------------------------------------- 
 
-13---/19-16------------16----16-13-17~-------------------------------8-13-/- 
------------18--------18--------------------------------------------10------- 
--------------19-16-19-------------------------10----9------------10--------- 
-------------------------------------------7-10--10-7-10-7----7-10----------- 
------------------------------------------8---------------8--8--------------- 
----------------------------------------------------------------------------- 
 
-17-13----------------------------------------------------------------------- 
------13--------------------------------------------------------------------- 
--------14~-------------drum-fill-------------------------------------------- 
----------------------------------------------------------------------------- 
----------------------------------------------------------------------------- 
----------------------------------------------------------------------------- 
 
----------------------------------------------------------------------------- 
----------------------------------------------------------------------------- 
----------------------------------------------------------------------------- 
---------------5--4-------------7-5-------------5--4------------------------- 
-2-2-4-5--2-2--3-2-2-2-5-7-2-2-53-2-2-4-5-2-2-3-2-2-2-5-7--7-8-8-7-------- 
-0-0-2/3--0-0-------0-0-3/5-0-0-----0-0-2/3-0-0------0-0-3/5--5/6-65-------- 
 
----------------------------------------------------------------------------- 
----------------------------------------------------------------------------- 
----------------------------------------------------------------------------- 
---------------5--4-------------7-5-------------5--4------------------------- 
-2-2-4-5--2-2--3-2-2-2-5-7-2-2-53-2-2-4-5-2-2-3-2-2-2-5-7--7-8-8-7-------- 
-0-0-2/3--0-0-------0-0-3/5-0-0-----0-0-2/3-0-0------0-0-3/5--5/6-65-------- 
 
 4x 
----------------------------------------------------------------------------- 
----------------------------------------------------------------------------- 
----------------------------------------------------------------------------- 
-----------------------------5----------------------------------------------- 
-2-2-4-5-2-2-2-2-4-5-2-2-2-2-3----------------------------------------------- 
-0-0-2/3-0-0-0-0-2/3-0-0-0-0------------------------------------------------- 
                                                         harmonics w/bar 
----------------------------------------------------------------------------- 
----------------------------------------------------------------------------- 
----------------------------------------------------------3.6---------------- 
----------------------------------------------------------------------------- 
-2--------------------------------------------------------------------------- 
-0--------------------------------------------------------------------------- 
 
----------------------------------------------------------------------------- 
----------------------------------------------------------------------------- 
----------------------------------------------------------------------------- 
---------------5--4-------------7-5-------------5--4------------------------- 
-2-2-4-5--2-2--3-2-2-2-5-7-2-2-53-2-2-4-5-2-2-3-2-2-2-5-7--7-8-8-7-------- 
-0-0-2/3--0-0-------0-0-3/5-0-0-----0-0-2/3-0-0------0-0-3/5--5/6-65-------- 
 
                                                         harmonics w/bar 
----------------------------------------------------------------------------- 
----------------------------------------------------------------------------- 
-9------------------------7-----------------------------------4-------------- 
-9------------------------7-------------------------------------------------- 
-7------------------------5-------------------------------------------------- 
-0--------------------------------------------------------------------------- 
 
----------------------------------------------------------------------------- 
----------------------------------------------------------------------------- 
----------------------------------------------------------------------------- 
---------------5--4-------------7-5-------------5--4------------------------- 
-2-2-4-5--2-2--3-2-2-2-5-7-2-2-53-2-2-4-5-2-2-3-2-2-2-5-7--7-8-8-7-------- 
-0-0-2/3--0-0-------0-0-3/5-0-0-----0-0-2/3-0-0------0-0-3/5--5/6-65-------- 
 
 
----------------------------------------------------------------------------- 
----------------------------------------------------------------------------- 
----------------------------------------------------------------------------- 
----------------------------------------------------------------------------- 
-4-------------4-----------4-----------4-----------4------7-----7---7-----7-- 
-2-2-2-2-2-2-2-2-----2-2-2-2-----2-2-2-2-----2-2-2-2-----/5-5-5-5---5-5-5-5-- 
 
----------------------------------------------------------------------------- 
----------------------------------------------------------------------------- 
---------------------------------3--4----7----------------------------------- 
---------------------------------3--4----7----------------------------------- 
--7-----7---------2--------------1--2---/5----------------------------------- 
--5-5-5-5---------0--------------------------------------------------------- 
 
 2x 
----------------------------------------------------------------------------- 
----------------------------------------------------------------------------- 
------------------------------5--------------------------------7------------- 
------------------------------5--------------------------------7------------- 
-2-2-4-5--2-2-2-2-4-5-2-2-2-2-3---2-2-4-5--2-2-2-2-4-5-2-2-2-2-5------------- 
-0-0-2/3--0-0-0-0-2/3-0-0-0-0-----0-0-2/3--0-0-0-0-2/3-0-0-0-0--------------- 
 
 2x + some guitar wanking 
----------------------------------------------------------------------------- 
----------------------------------------------------------------------------- 
-----------------------------3-----------------------------4----------------- 
-----------------------------3-----------------------------4----------------- 
-2-2-4-5-2-2-4-5-2-2-4-5-2-2-1-2-2-4-5-2-2-4-5-2-2-4-5-2-2-2----------------- 
-0-0-2/3-0-0-2/3-0-0-2/3-0-0---0-0-2/3-0-0-2/3-0-0-2/3-0-0------------------- 
 
---------10-15-10----------------------------13-18-13---------------/17-12--- 
-------12--------12-----15-13-12-----------15--------15------15-17--------13- 
-----12------------12-----------14-12----15------------15--15---------------- 
--/12----------------12----------------15----------------15------------------ 
----------------------------------------------------------------------------- 
----------------------------------------------------------------------------- 
 
---------12--17-20-17-13----------13---18-13----------13---17-11----------11- 
-------13---------------13------13----------15------15----------13------13--- 
-14--14-------------------14--14--------------15--15--------------14--14----- 
---15-----------------------15------------------15------------------13------- 
----------------------------------------------------------------------------- 
----------------------------------------------------------------------------- 
 
        1 1/2 
--17-17b--------------------------------------------------------------------- 
-----------------------------------------------------------------------10-11- 
-----------------------------------------------7-10-9-7-9-7-----7-9-10------- 
-------------------------------------------7-8---------8---8-7-8------------- 
-------------------5-8-7-5--7-5-----5-7-8------------------------------------ 
----------------5-6--------6---6-5-6----------------------------------------- 
 
-10-13-12-10--12-10---------------------------------------------------------- 
------------11-----11-10--------10------------------------------------------- 
-------------------------10-9-10--10-9-7----------------drums--------------- 
-----------------------------------------87~-------------------------------- 
----------------------------------------------------------------------------- 
----------------------------------------------------------------------------- 
 
----------------------------------------------------------------------------- 
----------------------------------------------------------------------------- 
--------9----9--------------------------------------------------------------- 
--------9----9--------------------------------------------------------------- 
--------7----7--------------------------------------------------------------- 
--------0----0--------------------------------------------------------------- 
 
-20-17------17--19-16------16-17-12------12-14-11------11-12-8-----8-10-7---- 
------17--17---------18--18--------13--13--------13--13-------10-10------9--- 
--------17-------------19------------14------------14-----------9---------10- 
----------------------------------------------------------------------------- 
----------------------------------------------------------------------------- 
----------------------------------------------------------------------------- 
 
--7--8-5---5--6-3---3-------------------------------------------------------- 
-9------5-5------5-5--------------------------------------------------------- 
---------5--------6-------10-7---7--9-6----6--10-7---7--9-6----6--7-2---2---- 
------------------------------7-7------8--8-------7-7------8--8------3-3----- 
-------------------------------8--------10---------8--------10--------5------ 
----------------------------------------------------------------------------- 
 
---------------------------------------------------------19-16------16-19-16- 
--------------------------------------------------------------17--17--------- 
----------------------------------------------------------------16----------- 
--10-7----7---5-2---2---7-2---2--5-2---2---4-1---1--------------------------- 
------8--8-------3-3-------4-4------3-3-------3-3---------------------------- 
-------10---------3---------5--------3---------5----------------------------- 
 
-------16-19-16------------------------------16----15-11------11-15-11------- 
-17--17--------17--------------------------17-----------13--13--------13--13- 
---16------------1613----------------13/16---------------12------------12--- 
----------------------14------------14--------------------------------------- 
------------------------14-11--11-14----------------------------------------- 
-----------------------------12---------------------------------------------- 
 
-11-15-11--------------------------11-------11-8---8-11-8---8-11-8----------- 
---------13----------------------13-------------9-9------9-9------9---------- 
-----------12-8-------------8/12----------------8--------8--------85------- 
----------------10---------10-----------------------------------------6------ 
------------------10-6-6-10--------------------------------------------6-3-3- 
----------------------8---------------------------------------------------4-- 
 
--------8----/12-11-10-9-10-11--11-10-9-8-9-10---8-7-6-5-6-7-8-7-6-5-4-5---- 
-------9--------------------------------------------------------------------- 
----5/8---------------------------------------------------------------------- 
---6------------------------------------------------------------------------- 
-6--------------------------------------------------------------------------- 
----------------------------------------------------------------------------- 
 
--/12-11-10-9-10-11-----9-8-7-8-9-8-7-6-5-6---7-6-5-4-5-6-7------------------ 
----------------------------------------------------------------------------- 
----------------------------------------------------------------------------- 
----------------------------------------------------------------------------- 
----------------------------------------------------------------------------- 
----------------------------------------------------------------------------- 
 
 
-12-10-9----9-7-------------------------------------------------------------- 
------------------------------------------------------10/1310--------------- 
---------------9-7--6-4-3-4-6-4-3-----------/10~---11---------11-10~--------- 
----------------------------------------------------------------------------- 
----------------------------------6-4---------------------------------------- 
----------------------------------------------------------------------------- 
 
-13-18---18--18--18----18---------------------------------------------------- 
------14-----------------------------13~---14--14b~-------------------------- 
-----------15---------------------------------------------------------------- 
---------------15------------------------------------------------------------ 
--------------------16---13~------------------------------------------------- 
----------------------------------------------------------------------------- 
 
 4x                                 4x 
-18-13------13-18-----------------|-20-15------15-20------------------------- 
------14--14------18-14------14-18|------18--18------18-13------13-18-------- 
--------15-------------15--15-----|--------17-------------14--14------------- 
-------------------------15-------|-------------------------15--------------- 
----------------------------------|------------------------------------------ 
----------------------------------|------------------------------------------ 
 
 4x                                 4x 
-18-13------13-18-----------------|-20-15------15-20------------------------- 
------14--14------18-14------14-18|------18--18------18-13------13-18-------- 
--------15-------------15--15-----|--------17-------------14--14------------- 
-------------------------15-------|-------------------------15--------------- 
----------------------------------|------------------------------------------ 
----------------------------------|------------------------------------------ 
 3x 
--18-14--14------------------------------------------------------------------ 
-------18--18-14--18-14---14------------------------------------------------- 
-----------------------18---17--17-15--17-15------15------------------------- 
-------------------------------------16-----16-15---12-11--12-11------------- 
----------------------------------------------------------------12-11-------- 
----------------------------------------------------------------------14-13-- 
 outro 4x  (fade out) 
----------------------------------------------------------------------------- 
----------------------------------------------------------------------------- 
--3---3----------------5--4----5----7------3---3------------5---8-----3------ 
--3---3--2-------------5--4----5----7------3---3--2---------5---8-----3------ 
--1---1--2----2-2-2-2--3-2-2--3-2--5--2---1---1--2---2-2-2-3--/6----1------ 
---------0----0-0-0-0-------0----0-----0----------0---0-0-0------------------ 
 
 
 
_______________________________________________________ 
Contribuição: Caio Henrique Leal([email protected]) 

		  

See also:

tabs Marilyn Manson - Disposable Teens tabs Pantera - Cemetary Gates tabs Slipknot - Duality tabs Slipknot - Vermilion Pt.2 (versão Correta) tabs Alice Cooper - Poison tabs Avenged Sevenfold - Buried Alive
e-chords

Other versions:

tabs Cacophony - Burn The Ground
auto scroll beats size up size down change color hide chords drawings
tab show chords e-chords YouTube Clip e-chords hide all tabs e-chords go to top tab

share