Cacophony

Concerto

Cacophony

chords Expert expert

save to print version add songbook text version e-mail correct tuner
chordsukulelecavacokeyboardtabbassdrumsharmonicaflute Guitar Pro
close

there isn't a video lesson for this song

chords

Concerto

	  		 
F#5       G#              C#5       F#5           D5            B5    1/2 
            1/2 
----------------------------------------------------------------------------- 
--------------------------------------------------------------9--10~--9b-rb9- 
------6----6b---rb6--4~--------4b----4b--rb4--2~--------/11~----------------- 
--4------------------------3~----------------------4~------------------------ 
----------------------------------------------------------------------------- 
----------------------------------------------------------------------------- 
 
       A5                E5       A5      C#5 
----------------------------------------------------------------------------- 
----------------------------------------------------------------------------- 
---7~--9~-9^11^9-8/9~-11-9^11^9-8/9~------10~-------------------------------- 
----------------------------------------------------------------------------- 
----------------------------------------------------------------------------- 
----------------------------------------------------------------------------- 
 
                                                       3x 
-10-7---7-10-7---7-10-7---7-10-7---7----------------------------------------- 
-----8-8------8-7------8-8------8-8------8-5---5-10-5-8-5---5---------------- 
------7--------7--------7--------7----------6-6----------6-6----12-11-9------ 
---------------------------------------------7------------7------------12-11- 
----------------------------------------------------------------------------- 
----------------------------------------------------------------------------- 
 
----------------------------10-12-14-12-10------------12-14-15-14-12--------- 
---------------10-12-14-/-14--------------14-12-14--15--------------15-14---- 
--------9-11-12-------------------------------------------------------------- 
-9-11-12--------------------------------------------------------------------- 
----------------------------------------------------------------------------- 
----------------------------------------------------------------------------- 
 
---15-17-15-14--------14-15----19-17-15--------------15-17----19-20-19-17---- 
--------------17-15-17-----------------19-17-15-17-19------------------------ 
----------------------------------------------------------------------------- 
----------------------------------------------------------------------------- 
----------------------------------------------------------------------------- 
----------------------------------------------------------------------------- 
 
                                           4x 
------------------------------------20-17------17---------------------------- 
-20-19-17--------------17-19-20----------18--18-------18-15------15-20-15---- 
---------19-17-16-17-19--------------------17--------------16--16------------ 
-------------------------------------------------------------17-------------- 
----------------------------------------------------------------------------- 
----------------------------------------------------------------------------- 
 
----------------------------------------------17-10-15-10-13-10-13-10-------- 
-18-15------15-18-15------15-20-15------15---------------------------11------ 
------16--16--------16--16--------16--16-------------------------------10-9-7 
--------17------------17------------17--------------------------------------- 
----------------------------------------------------------------------------- 
----------------------------------------------------------------------------- 
 
-------------------------8-10-12-/13-13-10-17-10-13-10-17-10--8-11-10-8-10--- 
------------------8-10-12---------------------------------------------------- 
------------7-9-10----------------------------------------------------------- 
-10-9-7-9-10----------------------------------------------------------------- 
----------------------------------------------------------------------------- 
----------------------------------------------------------------------------- 
 
-8------------------------------8-10-8--------------------------------------- 
--10-8----9-10-9---------9-10-12------12-10-9-10----9-10-9------------------- 
----------------9-10-9-10-----------------------10-9------10-9-------9-10-9-- 
--------------------------------------------------------------12-10-9-------- 
----------------------------------------------------------------------------- 
----------------------------------------------------------------------------- 
                             w/bar 
----------------------------------------------------------------------------- 
------------------9-10-12~--------------------------------------------------- 
--------------9-10----------------------------------------------------------- 
-12-10-9-10-12--------------------------------------------------------------- 
----------------------------------------------------------------------------- 
----------------------------------------------------------------------------- 
guitar 1 
---14~---12--10---12~---10--9---10~---/14~----/19~-------------------------- 
----------------------------------------------------------------------------- 
----------------------------------------------------------------------------- 
----------------------------------------------------------------------------- 
----------------------------------------------------------------------------- 
----------------------------------------------------------------------------- 
guitar 2 
--------------------------------------/14~----/19~--------------------------- 
---15~---14--12---14~---12-11---12~------------------------------------------ 
----------------------------------------------------------------------------- 
----------------------------------------------------------------------------- 
----------------------------------------------------------------------------- 
----------------------------------------------------------------------------- 
 
 
--------9-14-9-----------9-10-9--------------9----------12-10--9------------- 
----------------10---------------12---10-12----12-10-12----------12-10--9---- 
---11---------------11------------------------------------------------------- 
----------------------------------------------------------------------------- 
----------------------------------------------------------------------------- 
----------------------------------------------------------------------------- 
 
                                                                          
-------9-14-9-----------9--10-9-------------9-----------14-12-10------------- 
---------------10----10----------12---10-12----12-10-9-----------14-12-10---- 
--11--------------11--------------------------------------------------------- 
----------------------------------------------------------------------------- 
----------------------------------------------------------------------------- 
----------------------------------------------------------------------------- 
 
--------9-14-9-----------9-10-9--------------9----------12-10--9------------- 
----------------10---------------12---10-12----12-10-12----------12-10--9---- 
---11---------------11------------------------------------------------------- 
----------------------------------------------------------------------------- 
----------------------------------------------------------------------------- 
----------------------------------------------------------------------------- 
 
                                                                          
-------9-14-9-----------9--10-9-------------9-----------14-12-10------------- 
---------------10----10----------12---10-12----12-10-9-----------14-12-10---- 
--11--------------11--------------------------------------------------------- 
----------------------------------------------------------------------------- 
----------------------------------------------------------------------------- 
----------------------------------------------------------------------------- 
 
 
--------9-14-9-----------9-10-9--------------9----------12-10--9------------- 
----------------10---------------12---10-12----12-10-12----------12-10--9---- 
---11---------------11------------------------------------------------------- 
----------------------------------------------------------------------------- 
----------------------------------------------------------------------------- 
----------------------------------------------------------------------------- 
 
                                                                          
-------9-14-9-----------9--10-9-------------9-----------14-12-10------------- 
---------------10----10----------12---10-12----12-10-9-----------14-12-10---- 
--11--------------11--------------------------------------------------------- 
----------------------------------------------------------------------------- 
----------------------------------------------------------------------------- 
----------------------------------------------------------------------------- 
 
 
-------9-14p9-----------9-10p9--------------9----------12-10--9-------------- 
---------------10---------------12---10-12----12-10--9----------12-10--9----- 
--11---------------11-------------------------------------------------------- 
----------------------------------------------------------------------------- 
----------------------------------------------------------------------------- 
----------------------------------------------------------------------------- 
 
 
--13--9-10-13-10--9-------------------------------------------------| 
---------------------12-9-10-12-10-9--------------------------------| 
--------------------------------------14-10-11-14-11-10-------------| 
--------------------------------------------------------11~---------| 
--------------------------------------------------------------------| 
--------------------------------------------------------------------| 
 
 
----------------------------------------------------------------------------- 
-----------------------------9----------------------------------------------- 
-------9----------9---------9-9---------------------------------------------- 
---6-9--9-6---6-9--9-6--6-9----9-6-6-9--------------------------------------- 
--7---------7---------7-----------7------------------------------------------ 
----------------------------------------------------------------------------- 
 
----------------------------------11----------------------------------------- 
--------12----------12----------12--12--------------------------------------- 
---8-11---11-8-8-11---11-8-8-11-------11-8-8-11------------------------------ 
--9-----------9-----------9---------------9---------------------------------- 
----------------------------------------------------------------------------- 
----------------------------------------------------------------------------- 
 
----------------------------------------13-16-/21-16------------------------- 
----------14------------14------------14------------18----------------------- 
----10-13---13-10--10-13--13-10--10-13----------------18~-------------------- 
--11-------------11------------11-------------------------------------------- 
----------------------------------------------------------------------------- 
----------------------------------------------------------------------------- 
 
----------------------------------------------------------------------------- 
-17b~---rb17-16--17--16~----------------------------------------------------- 
----------------------------------------------------------------------------- 
----------------------------------------------------------------------------- 
----------------------------------------------------------------------------- 
----------------------------------------------------------------------------- 
 
---------------------------------------------------12-15-12------------------ 
-------------------------------9-----------------13--------13---------------- 
--------9----------9---------9--9-------------/12------------12~------------- 
----6-9---9-6--6-9--9-6--6-9-----9-6-6-9------------------------------------- 
--7----------7----------7-----------7---------------------------------------- 
----------------------------------------------------------------------------- 
 
----------------------------------------------------------------------------- 
-------------------------------10-------------------------------------------- 
-------10---------10---------10--10------------------------------------------ 
---7-10--10-7-7-10--10-7-7-10------10-7-7-10--------------------------------- 
--8----------8----------8--------------8------------------------------------- 
----------------------------------------------------------------------------- 
 
----------------------------------------13/16~--------| 
------------------------------------------------------| 
--------------------13-16-13----13-16-----------------| 
--12-15-12----12-15----------15-----------------------| 
-----------14-----------------------------------------| 
------------------------------------------------------| 
 
 
---------12-17-12----------12-13-12------------13----------15-13-12---------- 
------13----------13----13----------15---13-15----15-13-12----------15-13-12- 
---14----------------14------------------------------------------------------ 
----------------------------------------------------------------------------- 
----------------------------------------------------------------------------- 
----------------------------------------------------------------------------- 
 
                                                                            
--------12-17-12----------12-13-12------------13----------17-15-13----------- 
-----13----------13----13----------15---13-15----15-13-12----------17-15-13-- 
--14----------------14------------------------------------------------------- 
----------------------------------------------------------------------------- 
----------------------------------------------------------------------------- 
----------------------------------------------------------------------------- 
 
---------12-17-12----------12-13-12------------13----------15-13-12---------- 
------13----------13----13----------15---13-15----15-13-12----------15-13-12- 
---14----------------14------------------------------------------------------ 
----------------------------------------------------------------------------- 
----------------------------------------------------------------------------- 
----------------------------------------------------------------------------- 
 
                                                                            
--------12-17-12----------12-13-12------------13----------17-15-13----------- 
-----13----------13----13----------15---13-15----15-13-12----------17-15-13-- 
--14----------------14------------------------------------------------------- 
----------------------------------------------------------------------------- 
----------------------------------------------------------------------------- 
----------------------------------------------------------------------------- 
 
---------12-17-12----------12-13-12------------13----------15-13-12---------- 
------13----------13----13----------15---13-15----15-13-12----------15-13-12- 
---14----------------14------------------------------------------------------ 
----------------------------------------------------------------------------- 
----------------------------------------------------------------------------- 
----------------------------------------------------------------------------- 
 
                                                                            
--------12-17-12----------12-13-12------------13----------17-15-13----------- 
-----13----------13----13----------15---13-15----15-13-12----------17-15-13-- 
--14----------------14------------------------------------------------------- 
----------------------------------------------------------------------------- 
----------------------------------------------------------------------------- 
----------------------------------------------------------------------------- 
 
 
--------12-17p12----------12-13p12------------13----------15-13-12----------- 
-----13----------13----13----------15---13-15----15-13-12----------15-13-12-- 
--14----------------14------------------------------------------------------- 
----------------------------------------------------------------------------- 
----------------------------------------------------------------------------- 
----------------------------------------------------------------------------- 
 
 
--16-12-13-16-13-12--------------------19-16-17-19-17-16--------------------- 
---------------------15-12-13-15-13-12-------------------17~----------------- 
----------------------------------------------------------------------------- 
----------------------------------------------------------------------------- 
----------------------------------------------------------------------------- 
----------------------------------------------------------------------------- 
 
 
--------------12----------17~----12---19b~-----|  
--14~--------------14~-------------------------|   
-------14~-------------------------------------|  
-----------------------------------------------|  
-----------------------------------------------|  
-----------------------------------------------|  
 
 
 
--21-17----------17-19-16----------16---14-9------------9-16-13----------13-- 
--------17----17----------17----17------------10----10----------14----14----- 
-----------18----------------16------------------11----------------16-------- 
----------------------------------------------------------------------------- 
----------------------------------------------------------------------------- 
----------------------------------------------------------------------------- 
 
 
9-13-9------------9-16-13----------13----9-12-9---------------------------9-- 
--------10----10----------14----14---------------10---------------------10--- 
-----------11----------------16----------------------9----------------9------ 
-------------------------------------------------------11---------11--------- 
----------------------------------------------------------12--9-12----------- 
----------------------------------------------------------------------------- 
 
 
--8-5------5-8/12-8-----------8---15-12-----------12-/20~~--19-17-19~----- 
------5--5----------10-----10-----------13-----13------------------------- 
--------5---------------9------------------14----------------------------- 
-------------------------------------------------------------------------- 
-------------------------------------------------------------------------- 
-------------------------------------------------------------------------- 
 
 
--16^17^19^17---------------------------------------------------------------- 
-------------17-----------------------------------------------------5-10-5--- 
---------------1614--13^14^16^14^13-------------------------------5------5-- 
------------------------------------14----------------7-10-7---/--7--------7- 
--------------------------------------1411---------7-------7---------------- 
--------------------------------------------/12----------------------------- 
                                         1/2 
-----5-8-5---------12-17---15b~----------------------17-19-21-17--17--------- 
----5-----5------13----------------17---19b-----19b-------------19--19-19b~-- 
--/5-------5--/14------------------------------------------------------------ 
----------------------------------------------------------------------------- 
----------------------------------------------------------------------------- 
----------------------------------------------------------------------------- 
 
 
---/20-17-------------------------------------------------------------------- 
---------18------------------------------------------------------------------ 
-----------17-14----1714--------------------------------------------------- 
-----------------15-------15---------------15-------------------------------- 
-------------------------------1512--12-15---1512-------------------------- 
------------------------------------13-------------138~--------------------- 
                                                1 1/2 
--------------------------------------------/14b----------------------------- 
----------------------7-10-7----7-10-7----7---------------------------------- 
-------5-8---5-7--5-8-------8--8------8--8----------------------------------- 
------7----7----7------------10--------10------------------------------------ 
--6-9------------------------------------------------------------------------ 
----------------------------------------------------------------------------- 
 
--/10-10-7------------------------------------------------------------------- 
----------7-10-7---10-10-7---------------------------------------------9--9-- 
--------------------------7-9-7---9-9-7--------------------8--8-11-8-11-11--- 
---------------------------------------7-9-7------8-11-8-11-11--------------- 
--------------------------------------------9~~------------------------------ 
----------------------------------------------------------------------------- 
 
----------9--9-11------8-8-5------------------------------------------------- 
-9-11-9-11-11---------------5-8-5---8-8-5------------------------------------ 
-----------------------------------------5-7-5----7-7-5-----------------6-6-- 
-------------------------------------------------------5-7-5-----6-9-6-9-9--- 
-------------------------------------------------------------7--------------- 
----------------------------------------------------------------------------- 
 
---------------7-7-9--------------------/15-11------------------------------- 
------7-7-9-7-9-9-----------------------------15-11------15-11--------------- 
-9-6-9-9-------------------------------------------14-12------14-12---------- 
-------------------------------------------------------------------13-12----- 
----------------------------------------------------------------------------- 
----------------------------------------------------------------------------- 
 
 
----------------------------------------------------------------------------- 
--------------------------------------------------------------11-13-----11-13 
--14-12---------------------------------------10-12------10-12-----10-12----- 
--------13-12------13-12-----------------10-12-----10-12--------------------- 
-------------13-12------13-1210----10-13------------------------------------ 
----------------------------------------------------------------------------- 
 
-10-13------10-13----/18---18b~---------------------------------------------- 
-------11-13----------------------------------------------------------------- 
----------------------------------------------------------------------------- 
----------------------------------------------------------------------------- 
----------------------------------------------------------------------------- 
----------------------------------------------------------------------------- 
 
----------------------------------------------------------------------------- 
--------------------------------------------------------------------10^11^10- 
-----10^12^109--------9-10-9--9-10-12-10-9--------9-10-9--9-10-12----------- 
---12----------12-11-12------12------------12-11-12------12------------------ 
----------------------------------------------------------------------------- 
----------------------------------------------------------------------------- 
 
-----------------------------------------------6-9-/12-9--------------------- 
-14^10-11--10---------------------------------8---------11-----------------14 
---------12--10-12-9-10--9-----------------6-9------------12-9--------12-15-- 
-----------------------12-12-11-12-----------------------------11---14------- 
----------------------------------12----------------------------------------- 
----------------------------------------------------------------------------- 
                                                                    1 1/2 
-12-15-/18-15-----------------15-18-15-/21-18----------------18-21-21b~------ 
-------------17-------------17---------------20------------20---------------- 
---------------18-15---15-18-------------------21-18--18-21------------------ 
--------------------17------------------------------20----------------------- 
----------------------------------------------------------------------------- 
----------------------------------------------------------------------------- 
 
----------------------------------------------------------------------------- 
--10-6-6-6-6-10-6-6-6-6------------------------------------------------------ 
------------------------9-5-5-5-5-9-5-5-5-5----------5-7-5-4--4-5-7-5-4------ 
------------------------------------------------------------7----------7----- 
----------------------------------------------------------------------------- 
----------------------------------------------------------------------------- 
 
----------------------------------------------------------------------------- 
------------------------------------------13-10-10-10-10-13-10-10-10-10------ 
-7-5-4-7-5-4------10-7-7-7-7-10-7-7-7-7-7------------------------------------ 
------------6-7~~------------------------------------------------------------ 
----------------------------------------------------------------------------- 
----------------------------------------------------------------------------- 
 
--/13-10--------------------------------------------13-10-10---15-12-12------ 
--------12---------------------------------/13-10-10-------------------15-12- 
----------13-10------------------10-12b~------------------------------------- 
---------------12-9----------9-12-------------------------------------------- 
-------------------11-8--8-11------------------------------------------------ 
-----------------------10---------------------------------------------------- 
 
-----------------17-13-13---19-15-15----------------------------------------- 
-12-----17-13-13---------------------18-15-15-------------------------------- 
------------------------------------------------10-7-9-10-9-7-10-7-9-10-9-7-- 
----------------------------------------------------------------------------- 
----------------------------------------------------------------------------- 
----------------------------------------------------------------------------- 
 
--------------------------13-10-10---15-12-12------------------17-13-13------ 
------------------13-10-10-------------------15-12-12--17-13-13-------------- 
-9-7-5-7-5--5---------------------------------------------------------------- 
----------9----7~~----------------------------------------------------------- 
----------------------------------------------------------------------------- 
----------------------------------------------------------------------------- 
 
                     2x         
-19-15-15-------------------------------------------------------------------- 
---------18-15-15--------------------------------------------------------12-- 
------------------10-7-9-10-9-7--9-7-5-7-5-5~~-----------10-13------10-13---- 
------------------------------------------7----------9-12-------9-12--------- 
-------------------------------------------------8-11------------------------ 
----------------------------------------------------------------------------- 
 
-----------------13-16--/19-16----------------16-19-16-/22-19---------------- 
-15---------12-15-------------18------------18---------------21-------------- 
-------10-13--------------------19-16--16-19-------------------22-19--19~---- 
----12-------------------------------18-----------------------------21------- 
----------------------------------------------------------------------------- 
----------------------------------------------------------------------------- 
 
---------------------10--/13--12^13^12-10-8-10-10b~------17-14------14------ 
------------------10-------------------------------------------15--15-------- 
-----------7--10-------------------------------------------------14---------- 
--------7-------------------------------------------------------------------- 
-5---8----------------------------------------------------------------------- 
----------------------------------------------------------------------------- 
 
---19-15------15---20-15------15---19-15------15---20-17-------19------------ 
--------15--15----------17--17----------15--15----------19-20----19-20-17-19- 
----------16--------------17--------------16--------------------------------- 
----------------------------------------------------------------------------- 
----------------------------------------------------------------------------- 
----------------------------------------------------------------------------- 
     
--17------------15-14----------------10-15-10------------7-12-7-------------- 
----17-19-15-17------15------------12--------12---------9------9------------- 
-----------------------14-11----12------------12------9--------9------------ 
----------------------------------------------------------------------------- 
----------------------------------------------------------------------------- 
----------------------------------------------------------------------------- 
 
-----10-15-/--19-15--------------7-10--------15-19-15-----17-14-------------- 
---12--------------15-----------8-----------15-------15-------15------------- 
-12------------------16--------7----------16--------------------14-11-14-12- 
-----------------------17-----9---------17----------------------------------- 
-------------------------17-------------------------------------------------- 
----------------------------------------------------------------------------- 
                                                    Solo (D) 
----------------------------------------------------------------------------- 
----------------------------------------------------------------------------- 
11--11-14-11-------------------------------------------------11-14~---------- 
--12--------12--------------------------------------------12----------------- 
--------------12-9--10--12-10-9---12------------------12-------------------- 
------------------10-----------10---------10--10--12-14---------------------- 
 
----------------------------------------------------------------------------- 
----------------------------------------------------------------------------- 
---12---11tr12---9----7~-----7--9---(9b)--rb--9b~----(9b)---rb---7tr9----7-6- 
----------------------------------------------------------------------------- 
----------------------------------------------------------------------------- 
----------------------------------------------------------------------------- 
 
-------------------------------------------14-10-14-10----------------------- 
--------------------------------------10^12-----------10--10---9-10~~-------- 
-------4--6--7---7---------4/6~-------------------------11------------------- 
-9~----------------7~-------------------------------------------------------- 
----------------------------------------------------------------------------- 
----------------------------------------------------------------------------- 
 
   D5                   F#5                                B5 
/14-10--------------------------17-21-17--21-17----/19-14-------------------- 
------10----------------------19--------19-----19--------15------------------ 
--------11------------------18-----------------------------16---------------- 
----------12-------12-----19---------------------------------16-------------- 
------------12-9-12-----21-------------------------------------17-14-17------ 
---------------10------------------------------------------------------------ 
 
             A5                                         E5 
--------14---21-17------17-21--21--21--21-----------------15-19-15-19-15----- 
------15----------17--17-----17-------------------------17--------------17--- 
----16--------------18-----------18-------------------16------------------16- 
--16--------------------------------19--------------17----------------------- 
----------------------------------------19-----14-19------------------------- 
----------------------------------------------------------------------------- 
 
---15----17-17--17-14-17-21-17--------------------------9-10-12---/15-12-14-- 
-17-----------15--------------19~~---------------8-10-12--------------------- 
------------------------------------------7-9-11----------------------------- 
-----------------------------------7-9-11------------------------------------ 
----------------------------------------------------------------------------- 
----------------------------------------------------------------------------- 
 
-12-15-12-14-12-----12------------------------------------------------------- 
---------------14-15--15-14-12---------------------11b----rb--10~------------ 
------------------------------14~~---14^12--/7~------------------------------ 
----------------------------------------------------------------------------- 
----------------------------------------------------------------------------- 
----------------------------------------------------------------------------- 
 
    1/2            1/2 
----------------------------------------------------------------------------- 
----------------------------------------------------------------------------- 
--7b-----rb--7---7b~------------7-9-7-11-7-9-11-9-7-----------7-------------- 
--------------------------8-9-11-------------------11-9-7-9-11--11-9-7-11-9-7 
----------------------------------------------------------------------------- 
----------------------------------------------------------------------------- 
                                1/2       12 
---------------15b~----15-14--(14b)-rb--(14b)---rb----------17b---17~-------- 
---------------------------------------------------15------------------------ 
------------------------------------------------------14~-------------------- 
---7-9----------------------------------------------------------------------- 
-10----10~------------------------------------------------------------------- 
----------------------------------------------------------------------------- 
 
---/22b---b-b--b~------22-21---22~---19-19-21-21-22-22-22b~----(22b)---rb-21- 
----------------------------------------------------------------------------- 
----------------------------------------------------------------------------- 
----------------------------------------------------------------------------- 
----------------------------------------------------------------------------- 
----------------------------------------------------------------------------- 
 
--20b~------------------------------22tr17----------------------------------- 
----------------------------------------------------------------------------- 
----------------------------------------------------------------------------- 
----------------------------------------------------------------------------- 
----------------------------------------------------------------------------- 
----------------------------------------------------------------------------- 
 
 
2nd guitar (tapping legato á la Becker) 
------------10tr15--12tr14--10tr12----9tr10---7tr9---10^9^7------------------ 
-----------------------------------------------------------10^8^7----7^8^10^8 
-----------------------------------------------------------------9^7--------- 
----------------------------------------------------------------------------- 
----------------------------------------------------------------------------- 
----------------------------------------------------------------------------- 
                             
----------------------------------------------------------------------------- 
-^7-------------------------------------------------------------------------- 
---9^7^6-----------9^7-------6-7-9-7-6-6-7-9-7-6---9-7-6--------------------- 
--------9^7^5-------------------9-----9---------9-7-----9-7--9-5-7-9-7-5----- 
-------------9^7^5-----7^5---------------------------------9------------9-7-5 
----------------------------------------------------------------------------- 
 
----------------------------------------------------------------------------- 
--------------------------------------------------------------7-8-8tr10------ 
-------------------------------------------9-7-9-0-9-7-6-0-7-6--------------- 
-9-7-5------------------------5-7-9-7-5-------------------------------------- 
-------9-7-5--7tr9---4tr5--7-9---------9-7----------------------------------- 
----------------------------------------------------------------------------- 
 
----------------------------------------------------------------------------- 
-8-7-8-10-8-7---------------------------------------------------------------- 
-------------9-7-6-------6-7-9-7-6------------------------------------------- 
------------------9-7-5-9---------9-7-5------9-7-9-7-5-----fade-out---------- 
---------------------------------------9-7-5----------7-5-------------------- 
----------------------------------------------------------------------------- 
 
 
_______________________________________________________ 
Contribuição: Caio Henrique Leal([email protected]) 

		  

See also:

chords Avenged Sevenfold - Gunslinger chords Alice Cooper - Millie and Billie chords Avenged Sevenfold - Fiction chords Dream Theater - Looking Through Her Eyes chords Seether - Broken Ft Amy Lee chords Dream Theater - The Spirit Carries on
e-chords

Other versions:

chords Cacophony - Concerto chords Carmem Silva - Concerto para um Verão chords Leonardo Sullivan - Concerto Para Um Verão chords Núbia Lafayette - Concerto Para Um Verão chords Altemar Dutra - Concerto Para Um Verão
auto scroll beats size up size down change color hide chords simplify chords drawings columns
tab show chords e-chords YouTube Clip e-chords hide all tabs e-chords go to top tab

share