Blink 182

home > Blink 182

I Won't Be Home For Christmas Tab

Blink 182

Difficulty: nolevelnolevel

by jessgomes

tuner correct add songbook print version text version save to e-mail
chordsukulelecavacokeyboardtabbassdrummharmonicsflute Guitar Pro
chords

I Won't Be Home For Christmas

  		e--------------------------------------------------- 
B--------------------------------------------------- 
G-0-0-4-0-5-0-4-0---0-4-0-5-0-4-0---0-4-0-5-0-4/2/0- 
D--------------------------------------------------- 
A---------------------------------3----------------- 
E-----------------0--------------------------------- 

------------------| 
------------------| 
---0-4-0-2-0-4-0--| 
-0----------------| 
------------------| 
------------------| 

Verse 
e---------------------------------------------------------| 
B---------------------------------------------------------| 
G---------------------------------------------------------| 
D-----------------------------5555555555-5--7777777777-7--| 
A-5555555555-5--2222222222-2--3333333333-3--5555555555-5--| 
E-3333333333-3--0000000000-0------------------------------| 
   ****** *      ****** *      ****** *      ****** * 

Pre Chorus 
e------------------| 
B------------------| 
G-7-7-7-7-7-7-7-7--| 
D-x-x-x-x-x-x-x-x--| 
A-5-5-5-5-5-5-5-5--| 
E------------------| 

Chorus 
e-----------------------------------------| 
B-----------------------------------------| 
G---------------------55555555--77777777--| 
D-55555555--22222222--55555555--77777777--| 
A-55555555--22222222--33333333--55555555--| 
E-33333333--00000000----------------------| 

Interlude 
e------------| 
B------------| 
G-4--4--4----| 
D-5--5----5--| 
A------------| 
E------------| 

Outro 
e-----------------------------------------| 
B-----------------------------------------| 
G-----------77777777------------55555555--| 
D-55555555--77777777--22222222--55555555--| 
A-55555555--55555555--22222222--33333333--| 
E-33333333------------00000000------------| 
	  

Search Paypal
auto scroll beats size up size down change color hide chords drawings
tab show chords e-chords YouTube Clip e-chords hide all tabs e-chords go to top tab