Blink 182

home > Blink 182

I Won't Be Home For Christmas Chords

Blink 182

Difficulty: BeginnerBeginner

tuner correct add songbook print version text version save to e-mail
chordsukulelecavacokeyboardtabbassdrummharmonicsflute Guitar Pro
chords

I Won't Be Home For Christmas

  		Tabbed by Dave ([email protected]) 

. - Palm Mute 
  
Intro - Guitar 1 
e|------------------|--------------|-----------------|------------| 
B|------------------|--------------|-----------------|------------| 
G|--0-0-4-0-5-0-4-0-|-0-4-0--0-4-0-|-0-2-0-5-0-4-2-0-|-0-4-0-4-0--| 
D|------------------|--------------|-----------------|------------| 
A|------------------|--------------|-----------------|------------| 
E|------------------|--------------|-----------------|------------| 

Intro - Guitar 2 (Work out strumming yourself) 
e|---------------------------- 
B|---------------------------- 
G|--------77-55-77------------ 
D|--55-22-77-55-77------------ 
A|--55-22-55-33-55------------ 
E|--33-00--------------------- 

Verse 
e|--------------------------------|-------------------------------- 
B|--------------------------------|-------------------------------- 
G|--------------------------------|-------------------------------- 
D|--5-------------5-----5-----5---|-2-------------5-----5-----5---- 
A|--5-----------------------------|-2------------------------------ 
E|--3-3-3-3-3-3-3---3-3---3-3---3-|-0-0-0-0-0-0-0---0-0---0-0---0-- 
      . . . . . . . . . . . . . .     . . . . . . . . . . . . . . 

e|--------------------------------|-------------------------------- 
B|--------------------------------|-------------------------------- 
G|--5-----------------------------|-7------------------------------ 
D|--5-------------5-----5-----5---|-7-------------4-----4-----4---- 
A|--3-3-3-3-3-3-3---3-3---3-3---3-|-5-5-5-5-5-5-5---5-5---5-5---5-- 
E|--------------------------------|-------------------------------- 
      . . . . . . . . . . . . . .     . . . . . . . . . . . . . . 

Bridge 
e|------------| 
B|------------| 
G|--00000000--| 
D|--55555555--| 
A|------------| 
E|------------| 

Chorus - Guitar 1 
e|------------| 
B|------------| 
G|--00000000--| 
D|--55555555--| 
A|------------| 
E|------------| 

Chorus - Guitar 2 
e|----------------------- 
B|----------------------- 
G|-------7777------5555-- 
D|--5555-7777-2222-5555-- 
A|--5555-5555-2222-3333-- 
E|--3333------0000------- 

Didn't bother to tab out the interlude part near the end 
	  

Search Paypal
auto scroll beats size up size down change color hide chords simplify chords drawings columns
tab show chords e-chords YouTube Clip e-chords hide all tabs e-chords go to top tab