Blink 182

home > Blink 182

First Date (intro) Tab

Blink 182

Difficulty: nolevelnolevel

by VELHO

tuner correct add songbook print version text version save to e-mail
chordsukulelecavacokeyboardtabbassdrumsharmonicsflute Guitar Pro
chords

First Date (intro)

  		  C5        D5        F5        G5 
e|-0------------------------------------------| 
b|---1---1---3-1---1---3-1---1---3-1---0------| 
G|-----0---0-----0---0-----0---0-----0---0----| 
D|--------------------------------------------|   
A|--------------------------------------------| 
E|--------------------------------------------| 

   C5        D5        F5        G5        C5  <---Começa a música 
e|-0------------------------------------------| 
b|---1---1---3-1---1---3-1---1---3-1---0---1--| 
G|-----0---0-----0---0-----0---0-----0---0----| 
D|--------------------------------------------|   
A|--------------------------------------------| 
E|--------------------------------------------| 


Solinho no meio da música! 


    
e|---------------------------------------------------------------| 
b|---------------------------------------------------------------| 
G|-5-5-5-5-5-5-5-9-9-9-9-5-5-5-10-10-10-10-5-5-5-7-7-7-7-7-7-7---| 
D|---------------------------------------------------------------|  4x  
A|-3-3-3-3-3-3-3-7-7-7-7-3-3-3-8--8--8--8--3-3-3-5-5-5-5-5-5-5---| 
E|---------------------------------------------------------------|  


	  

Full key step upFull key step up
Half key step upHalf key step up
Half key step downHalf key step down
Full key step downFull key step down
Search Paypal
auto scroll beats size up size down change color hide chords drawings
tab show chords e-chords YouTube Clip e-chords hide all tabs e-chords go to top tab