Blink 182

home > Blink 182

First Date Tab

Blink 182

Difficulty: nolevelnolevel

by vejota

tuner correct add songbook print version text version save to e-mail
chordsukulelecavacokeyboardtabbassdrummharmonicsflute Guitar Pro
chords

First Date

Year: 2001 - Album: Take off Your Pants and Jacket

(Blink 182)

  		InTrO: depois da batera 
 
B|-5-1-----1-------3-1-----1-------3-1-----1-------3-1-----0------------- 
G|-----0------0--------0------0--------0------0--------0------0----------

B|-5-1-----1-------3-1-----1-------3-1-----1-------3-1-----0-----0~~~~~~~~| 
G|-----0------0--------0------0--------0------0--------0------0----------

Is it cool if I hold your hand?.... 

 
G|-5-5-5---5-5-5-----5-5-5---5-5-5-----5-5-5---5-5-5-----5-5-5---5-5-5-- 

Let's go...  
G|------------------2--2--2--2------------------------------------------- 
D|-5-5-5---5-5-5----2--2--2--2----3--3--5-------------------------------- 
A|-3-3-3---2-2-2----0--0--0--0----3--3--5--0-----------------------------
E|--------------------------------1--1--3--0-----------------------------

Forever...  
G|-------------------------2-2-2-2-2------------------------------------- 
D|-5-5-5-5-5-5--5-5-5-5-5--0-0-0-0-0------------------------------------- 
A|-3-3-3-3-3-3--2-2-2-2-2-------------3-3-3--5--0--0---------------------
E|------------------------------------1-1-1--3--0--0---------------------

 
D|-5-5-5-5-5-5-5-5------------------------------------------------------- 
A|-3-3-3-3-3-3-3-3------------------------------------------------------- 
E|-------------------0-0-0-0-0-0-0---1-1-1-1-1-1-1---3-3-3-3-3-3-3-------

 
A|-3-3-3-3-3-3-3-3-------------------------------------------------------
E|-------------------0-0-0-0-0-0-0---1-1-1-1-1-1-1---3-3-3-3-3-3-3-------

 
G|-5-5-5-5-5-5-5----9-9-9-9\5-5-5---10-10 10-10\5-5-5----7-7-7-7-7-7-7---
D|-x-x-x-x-x-x-x----x-x-x-x\x-x-x----x--x--x--x\x-x-x----x-x-x-x-x-x-x--- 
A|-3-3-3-3-3-3-3----7-7-7-7\3-3-3----8--8--8--8\3-3-3----5-5-5-5-5-5-5--- 
	  

Search Paypal
auto scroll beats size up size down change color hide chords drawings
tab show chords e-chords YouTube Clip e-chords hide all tabs e-chords go to top tab