Goo Goo Dolls

home > Goo Goo Dolls

Name Tab

Goo Goo Dolls

Difficulty: BeginnerBeginner

tuner correct add songbook print version text version save to e-mail
chordsukulelecavacokeyboardtabbassdrumsharmonicsflute Guitar Pro
chords

Name

Year: 1995 - Album: A Boy Named Goo

  		tabbed by [email protected] and Michael Carmen
 
Drop the low E to D
Raise the G string to A
and drop the B string down to A
 
h - hammer on
/ - slide up
 - slide down
 
Verse:
 
-----0---------0---------0----------0------0-------                       
-------0---------0---------0------0-------0--------
---0-----0---0-----0---0-----0---------------------
---------------------0-----------------------------
-0------------------5------------------------------
-7---------6--------------------4------2------0----
 
-0---0---0-----0-0-0-0-0---0---0---0---0---0----0--0---0--
-0---0---0-----0-0-0-0-0---0---0---0---0---0----0--0---0--
-0---0---0-----0-0-0-0-0---0---0---0---0---0----0--0---0--
-7-9/11-11/14-14-14-14-14-12---7--9/11-11--119-0-119-0--
-0---0---0-----0-0-0-0-0---0---0---0---0---0---12--0--12--
---------------------------------------------------------
 
chorus
Now we're grown up orphans, that never knew their names
---0---------------0----------------0----
---0---------------0----------------0----
---0---------------0----------------0----
---4---------------2----------------0----
---4---------------2----------------0----
---4---------------2----------------0----
 
We don't belong to no one, that's a shame
---0---------------0----------------0----
---0---------------0----------------0----
---0---------------0----------------0----
---4---------------2----------------0----
---4---------------2----------------0----
---4---------------2----------------0----
 
solo (only half of it yet, strum all but low E while playing)
---------------------------------------------0-0-0-0-0-0-------
--0-2-4-4-4-4-2-0--0--2-4-2-0----2-4-5-4-2-4-------------5-4-2-
---------------------------------------------------------------
---------------------------------------------------------------
---------------------------------------------------------------
 
 
-0-----------0-2-2-4-4-4/5-5-5-4-5-5-4-4-5-5-4-4-5-7-9-10-9---
---5-4-2-4-5-------------------------------------------------
--------------------------------------------------------------
--------------------------------------------------------------
--------------------------------------------------------------
--------------------------------------------------------------
 
Ending
 
-0---0---0---0---0---0---0---0--
-0---0---0---0---0---0---0---0--
-0---0---0---0---0---0---0---0--
-9--11--11--11--11---9---0---0--
-0---0---0---0---0---0--12--12--
--------------------------------
 
Lyrics:

(Verse) 
And even though the moment passed me by, 
        I still can't turn away.
I saw the dreams you never thought you'd lose,
        Tossed along the way.
Letters that you never meant to send,
        Lost and thrown away.
 
(chorus)
Now we're grown up orphans, that never knew their names.
        We don't belong to no one, that's a shame.
You could hide beside me, maybe for a while.
        And I won't tell no one your name, no I won't tell 'em your name.
 
(verse)
Scars are souveneers you never lose,
        The past is never far.
Did you lose yourself somewhere out there?
        Did you get to be a star?
Don't it make you sad to know that life,
        Is more than who we are.
 
(chorus)
You grew up way too fast, and now there's nothing to believe.
        And re-runs all become our history.
A tired song keeps playing on a tired radio.
        And I won't tell no one your name, no I won't tell 'em your name.
 
(Verse)
I think about you all the time
        but I don't need the same.
If it's lonely where you are come back down,
        and I won't tell no one your name.

This file is copyright [email protected], 1997. You are
free to use it for your personal or educational use, but permission must
be granted to post this transcription. Thank you.
	  

Search Paypal
auto scroll beats size up size down change color hide chords drawings
tab show chords e-chords YouTube Clip e-chords hide all tabs e-chords go to top tab