Ramones

home > Ramones

Blitzkrieg Bop Tab

Ramones

Difficulty: nolevelnolevel

by tom+delonge182

tuner correct add songbook print version text version save to e-mail
chordsukulelecavacokeyboardtabbassdrummharmonicsflute Guitar Pro
chords

Blitzkrieg Bop

(Tommy Ramone/ Dee Dee Ramone)

	  Intro:  
G|------------7-7--9-9-9-9-------------7-7--9-9-9-9-------------7-7--9-9-9-9-|  
D|-7-7-7-7-7--7-7--9-9-9-9--7-7-7-7-7--7-7--9-9-9-9--7-7-7-7-7--7-7--9-9-9-9-|  
A|-7-7-7-7-7--5-5--7-7-7-7--7-7-7-7-7--5-5--7-7-7-7--7-7-7-7-7--5-5--7-7-7-7-|  
E|-5-5-5-5-5----------------5-5-5-5-5----------------5-5-5-5-5---------------|  
  
G|----------7-7------------------|  
D|-7-7-7-7--7-7------------------|  
A|-7-7-7-7--5-5--7-7-7-----------|  
E|-5-5-5-5-------5-5-5-----------|  
  
Essa última parte soh tok o 4º Hey Ho, Let's Go!  
G|-------------------------------------|  
D|-7-7-7-7-7-7-7-7-7-7-7-7-7-7-7-7-7-7-|  
A|-7-7-7-7-7-7-7-7-7-7-7-7-7-7-7-7-7-7-|  
E|-5-5-5-5-5-5-5-5-5-5-5-5-5-5-5-5-5-5-|  
  
Verso: 2 vezes               
  
G|------------7-7--9-9-9-9-------------7-7--9-9-9-9-------------7-7--9-9-9-9-|  
D|-7-7-7-7-7--7-7--9-9-9-9--7-7-7-7-7--7-7--9-9-9-9--7-7-7-7-7--7-7--9-9-9-9-|  
A|-7-7-7-7-7--5-5--7-7-7-7--7-7-7-7-7--5-5--7-7-7-7--7-7-7-7-7--5-5--7-7-7-7-|  
E|-5-5-5-5-5----------------5-5-5-5-5----------------5-5-5-5-5---------------|  
  
G|----------7-7------------------|  
D|-7-7-7-7--7-7------------------|  
A|-7-7-7-7--5-5--7-7-7-----------|  
E|-5-5-5-5-------5-5-5-----------|  
  
Refrão:  
  
G|-7-7-7-7-----------7-7-7---------7-7-7-7-7-----------7-7--9-9-9-9-|  
D|-7-7-7-7--7-7-7-7--7-7-7--7-7-7--7-7-7-7-7--9-9-9-9--7-7--9-9-9-9-|  
A|-5-5-5-5--7-7-7-7--5-5-5--7-7-7--5-5-5-5-5--9-9-9-9--5-5--7-7-7-7-|  
E|----------5-5-5-5---------5-5-5-------------7-7-7-7---------------|  


	  

blitzkrieg-bop-by-ramones Play

there is a video lesson for this song

view more
Search
auto scroll beats size up size down change color hide chords drawings
tab show chords e-chords YouTube Clip e-chords hide all tabs e-chords go to top tab