Blink 182

home > Blink 182

What's my age again Tab

Blink 182

Difficulty: ExpertExpert

by vejota

tuner correct add songbook print version text version save to e-mail
chordsukulelecavacokeyboardtabbassdrumsharmonicsflute Guitar Pro
chords

What's my age again

Year: 1999 - Album: Enema of the State

  		
InTrO:
e---------------------------------------------
D-----11--------11-------11-------11----------
G---11--11---11--11---11--11---11--11---------
B--9------------------------------------------
A----------9----------------------------------
E---------------------9-------11--------------



Verse 2    B5  F5  C#5  D#5




Bridge (lead): 1
D--11-------11------------11------11-------------
G------11-------11-----------11-------11---------
B-----------------------9------------------------


Bridge (lead): 2

B--------8/9----------8/9/8----------8/9---------8/9/8----------
A--9-9-9-------9-9-9----------9-9-9-------9-9-9-----------------
E---------------------------------------------------------------

Bridge (lead): 3

D-------7----------
G------------------ 4X
B----8------8------
A--9------9--------


__________________________________
Vejota p/ todos q curtem Blink 182,  
p/ Gabriel (ele q me emprestou o cd p/ mim tirar a musica) e 
p/ Adriane B. C. (sei q vc naum curte Dinha + vc sabe q eu curto p/ kct)
	  

Full key step upFull key step up
Half key step upHalf key step up
Half key step downHalf key step down
Full key step downFull key step down
Search Paypal
auto scroll beats size up size down change color hide chords drawings
tab show chords e-chords YouTube Clip e-chords hide all tabs e-chords go to top tab