Blind Boy Fuller

Weeping Willow

Blind Boy Fuller

tabs

by  IRONPOWER4EVER

save to print version add songbook text version e-mail correct tuner
chordsukulelecavacokeyboardtabbassdrumsharmonicaflute Guitar Pro
close

there isn't a video lesson for this song

chords

Weeping Willow

Year: 2004 - Album: Remastered 1935-1938

	  		 
 

Intro 
               A                    Dm                 A 
e|-----------|-------------------|--1-1--0-0---------|--------------------| 
B|-----------|-/2-----0----------|----3--3-3--3------|--/2-----0----------| 
G|-----------|------2-------2----|--2----0----2------|-------2-----2-2----| 
D|----------0|-/2-----0-----2-2--|--0---------0------|--/2-----0-------2--| 
A|--------2--|----------------0--|-------------------|---------------0-0--| 
E|-----0-4---|-------------------|---------------0---|--------------------| 
                     
   A                   Dm 
e|-------------------|--1-1--0-0---------|--1-1--0-0---------| 
B|-/2-----0----------|----3--3-3---3-----|----3--3-3---3-----| 
G|------2-----2-2----|--2----0-----2-----|--2----0-----2-----| 
D|-/2-----0-------0--|--0----------0-----|--0----------0-----| 
A|--------------0----|-------------------|-------------------| 
E|-------------------|-----------------1-|-----------------0-| 

    A                                             E7                  
e|-----------------------|-----------------------|--0---0-0-----0--| 
B|--/2-----0-------------|--/2-----0-------------|----3-3-3-----0--| 
G|-------2----2--2-------|-------2---------------|-----------------| 
D|--/2-----0-------2-----|--/2-----0-----0---1-2-|------2---2---4--| 
A|-----------------------|-------------4---------|-----------------| 
E|-----------------0-----|-----------------------|--0--------------| 
                                               
                      A      B7                  
e|----------0------------|----4--5p4----------| 
B|---------------------2-|--4-------5---------| 
G|--2---1--------------2-|--4-----------------| 
D|--------2-----0----2---|--4-----------------| 
A|-----------------4-0---|-----------7-6-5--4-| 
E|-----------------------|--------------------| 
                                              

verse 1 

   A                                          Dm                         A 
e|---------------------|-------------------|--1---1--0---0------------|--------------------| 
B|-2----2---/2------2--|-2------0----------|------3--3---3----3-------|--/2-----0----------| 
G|-2----2---/2------2--|-2--2------2--2----|--2------0--------2-------|------2-----2--2----| 
D|-2----2---/2------2--|-2------0----------|--0---------------0-------|--/2-----0-------2--| 
A|---0-----------------|--------------0----|--------------------------|---------------0-0--| 
E|--------------0------|-------------------|-----------------------0--|--------------------| 
            Lord that weeeeping Willow           and that mournin' dove 

                       Dm 
e|-------------------|--1---1--0---0---------|--1-1-----0-----------| 
B|-/2-----0----------|------3--3---3---3-----|----3-----3---3--3----| 
G|-----2------2-2----|--2------0-------2-----|--2-------0------2----| 
D|-/2-----0-------0--|--0--------------0-----|--0--------------0----| 
A|--------------0----|-----------------------|----------------------| 
E|-------------------|---------------------1-|--------------------0-| 
                          That weepin' willow and that mournin' dove 

  A                                               E7                      
e|-----------------------|-----------------------|--------0---0------| 
B|--/2-----0-------------|--/2-----0-------------|----------3--------| 
G|------2-----2--2-------|------2----------------|-------------------| 
D|--/2-----0-------2-----|--/2-----0-----0---1-2-|--------2-----2----| 
A|-----------------------|-------------4---------|-------------------| 
E|-----------------0-----|-----------------------|--0-------0--------| 
                                       I got a gal up the country, Lord,  

       E7              A     B7                   A 
e|-----------0------------|-----4--5p4------------|-------------------| 
B|----------------------2-|---4-------5-----------|-2----2----/2---2--| 
G|---2---1--------------2-|---4-------------------|-2----2----/2---2--| 
D|---------2-----0----2---|---4-------------------|-2----2----/2---2--| 
A|------------------4-0---|-------------7-6-5---4-|---0---------------| 
E|------------------------|-----------------------|-------------0-----| 
    that  I sure do love 


Instrumental Break 
                                    
               A   (1:47.3)             Dm                 A 
e|-----------------|-----------------|--1-----0----------|--------------------| 
B|-2----2----------|-/2----0---------|-----3----3--3-----|--/2-----0----------| 
G|-2----2----------|----2------2-----|--2-----0----2-----|------2------2-2----| 
D|-2----2----------|-/2----0---2--0--|--0----------0-----|--/2-----0-------2--| 
A|---0-----------0-|--------------0--|-------------------|---------------0-0--| 
E|-----------1/4---|-----------------|---------------0---|--------------------| 
                      
   A                   Dm 
e|-------------------|--1----0---------|--1---0--1------| 
B|-/2----0-----------|----3----3--3----|----3----3--3---| 
G|----2-----2--2-----|--2----0---------|--2---0---------| 
D|-/2----0--------0--|------------0----|------------0---| 
A|-------------0-----|-----------------|----------------| 
E|-------------------|---------------1-|---------------0| 

    A                                             E7                  
e|-------------------|----------------------|--0---0-0-0-0-0--| 
B|--/2----0----------|--/2-----0------------|----3-3-3--------| 
G|-----2-----2--2----|------2---------------|-----------------| 
D|--/2----0-------2--|--/2-----0-----0--1-2-|--2-------2---4--| 
A|-------------------|-------------4--------|-----------------| 
E|----------------0--|----------------------|------0----------| 
                                               
                      A      B7                  A 
e|----------0------------|---4--5p4----------|---------------------| 
B|---------------------2-|--4------5---------|-2----2---/2------2--| 
G|---2--1--------------2-|--4----------------|-2----2---/2------2--| 
D|--------2-----0----2---|--4----------------|-2----2---/2------2--| 
A|-----------------4-0---|----------7-6-5--4-|---0-----------------| 
E|-----------------------|-------------------|--------------0------| 
                                               verse 5 starts   


Outro 

e|-----0------0------|------------0----------|---------0------------|----3--| 
B|----------3--------|-----------------------|-/2-------------------|----2--| 
G|-------------------|-2---1-----------------|-----2-2---------2--0-|-2--2--| 
D|-----2---------2---|--------2-------0----2-|-/2--------0----------|-------| 
A|-------------------|-------------------4-0-|-------0------4--0----|-------| 
E|-0--------0--------|-----------------------|----------------------|-------|                      
 
		  

Full key step upFull key step up
Half key step upHalf key step up
Half key step downHalf key step down
Full key step downFull key step down
hide glossary

See also:

tabs Corey Smith - Twenty-One tabs Allman Brothers Band - Revival tabs Mississipi John Hurt - Stack O' Lee Blues tabs Blind Blake - Bad Feeling Blues tabs Stevie Ray Vaughn and Double Trouble - Life By The Drop tabs Albert King - Oh Pretty Woman
e-chords

Other versions:

tabs Blind Boy Fuller - Weeping Willow
auto scroll beats size up size down change color hide chords drawings
tab show chords e-chords YouTube Clip e-chords hide all tabs e-chords go to top tab

share