Blind Boy Fuller

Piccolo Rag

Blind Boy Fuller

tabs Expert expert

by  ROWANE

save to print version add songbook text version e-mail correct tuner
chordsukulelecavacokeyboardtabbassdrumsharmonicaflute Guitar Pro
close

there isn't a video lesson for this song

chords

Piccolo Rag

	  		      C                    A     A           A7           
E||---3--3--------0-----------|-----5--------3--3-------| 
B||------------1-----3-----2--|-----------2-------------| 
G||*-----------------------2--|-------------------------| 
D||*--------2-----------2-----|--------2-----------2----| 
A||---3-----------3-----------|--0-----------0----------| 
E||---------------------------|-------------------------| 
 
 
  D7/F#       G7           C                                             A    
--2--2--------1---------|-------3--------3-------|--0--0--------0-----------| 
--1--------0------------|--1-------1-------------|-----------1-----3-----2--| 
------------------------|------------------------|-----------------------2--| 
--------0----------0----|-------2-----------2----|--------2-----------------| 
------------------------|--3---------------------|--3-----------3-----2-----| 
--2-----------3---------|-------------3----------|--------------------------| 
 
 
  A           A7           D7                       G                       
-----5--------3---------|------------0-----------|-------3--------3-------| 
-----------2------------|---------------3--------|----------------3-------| 
------------------------|------------------------|------------------------| 
--------2---------------|-------4----------4--5--|-------5-----5----------| 
--0-----------0----4----|--5---------------------|------------------------| 
------------------------|------------5-----------|--3-------3--------3----| 
 
 
                            C7                        F                        
-----0--------0----------|-----0--------0----------|-----1--------1----------| 
--------1--------1-------|--------1--------1-------|--------1--------1-------| 
-----------0-------------|--3--------3-------------|-----------2-------------| 
-------------------------|-------------------------|--------------------3----| 
--3-----------------3----|--------------------3----|-------------------------| 
-------------------------|-------------------------|--1----------------------| 
 
 
  Ab7/Eb                    C                        A7                      
-------2--------2p-1-----|-----0--------0---------|-------3--------3-------| 
----------1--------------|-----1-----1-------3----|--2---------------------| 
-------------1-----------|------------------------|------------------------| 
--1----------------------|--------2---------------|-------2-----2----------| 
----------------------2--|--3-----------3----2----|--0-------0--------0----| 
-------------------------|------------------------|------------------------| 
 
 
  D7/F#      G7           C                         
--2--2-------1----0----|-------3--------3--------|| 
-----------------------|----------1--------------|| 
-----------------------|------------------------*|| 
--------0--------------|-------2-----------2----*|| 
------------------2----|--3----------3-----------|| 
--2----------3---------|-------------------------|| 

		  

Full key step upFull key step up
Half key step upHalf key step up
Half key step downHalf key step down
Full key step downFull key step down
hide glossary

See also:

tabs Rival Sons - Where I've Been tabs Rival Sons - Memphis Sun tabs Blind Boy Fuller - Careless Love tabs Stevie Ray Vaughn and Double Trouble - Life By The Drop tabs The Rev. Peyton's Big Damn Band - Worryin' Kind tabs Cowboy Bebop - Blue
e-chords

Other versions:

tabs Blind Boy Fuller - Piccolo Rag
auto scroll beats size up size down change color hide chords drawings
tab show chords e-chords YouTube Clip e-chords hide all tabs e-chords go to top tab

share