Blind Boy Fuller

I crave my pig meat

Blind Boy Fuller

tabs

by  ROWANE

save to print version add songbook text version e-mail correct tuner
chordsukulelecavacokeyboardtabbassdrumsharmonicaflute Guitar Pro
close

there isn't a video lesson for this song

chords

I crave my pig meat

	  		I CRAVE MY PIG MEAT: BLIND BOY FULLER 
  
() 
 
 
 
                                                         
E||--7----------5--0--------|--------0-----0-----------| 
B||-----8-------------------|-----0-----3-----3-----2--| 
G||--7-----7----5-----0--0--|--1-----------------------| 
D||-------------------------|--------2-----------2-----| 
A||-------------------------|--------------------------| 
E||-------------------------|--0-----------0-----------| 
 
 
                                                                            
-----3-------2-----0--3--|----------------------|--7----------5--0--------| 
----------------3--------|----------------------|-----8-------------------| 
-------------------------|----------------------|--7-----7----5-----0--0--| 
--------2----------0-----|-------0---------0----|-------------------------| 
--0----------------------|----------------------|-------------------------| 
-------------2-----------|--3---------3---------|-------------------------| 
 
 
                                                                                
--------0-----0-----------|--------5-----3--3-------|--2-----2--2-----2-------| 
-----0-----3-----3-----2--|-----------2-------------|--1--------1-----1-------| 
--1-----------------------|-----2-------------------|--------2----------------| 
--------2-----------2-----|--------2-----------2----|-----0--------------0----| 
--------------------------|--0-----------0----------|-------------------------| 
--0-----------0-----------|-------------------------|--2-----------2----------| 
 
 
                                                                               
--------3-----3--3-------|--1-----1--1--------1----|--------3-----3----------| 
-----0-------------------|-------------------------|--1----------------------| 
--0----------------------|-----------------0-------|-----0-----0-----0-------| 
--------0-----------0----|--------0-----------0----|--------2-----------2----| 
--------------2----------|-----2-------------------|--3-----------3----------| 
--3--------3-------------|--3-----------3----------|-------------------------| 
 
 
                                                                               
--------3-----3---------|--------------0--3-------|--0-----0--------0--------| 
-----2------------------|--------0--3-------------|-----0-----3-----------2--| 
--------3-----3---------|-----3-------------------|--------------------------| 
--1--------1-------1----|--------0-----------0----|--------2-----------2-----| 
------------------------|-------------------------|--------------------------| 
------------------------|--3-----------3----------|--0-----------0-----------| 
 
 
                                                        
-----3-------2-----0--3--|----------------0-----------| 
----------------3--------|-------------------3-----2--| 
-------------------------|----------------------------| 
--------2----------0-----|----------------------2-----| 
--0----------------------|-------0h-1h-2--------------| 
-------------2-----------|--3-------------0-----------| 
 
 
                                                   
-----3-------2-----0--3--|----------------------|| 
----------------3--------|----------------------|| 
-------------------0-----|----------------------|| 
--------2----------------|-------0---------0----|| 
--0----------------------|----------------------|| 
-------------2-----------|--3---------3---------|| 

		  

See also:

tabs Corey Smith - Twenty-One tabs Allman Brothers Band - Revival tabs Mississipi John Hurt - Stack O' Lee Blues tabs Blind Blake - Bad Feeling Blues tabs Stevie Ray Vaughn and Double Trouble - Life By The Drop tabs Albert King - Oh Pretty Woman
e-chords

Other versions:

tabs Blind Boy Fuller - I crave my pig meat
auto scroll beats size up size down change color hide chords drawings
tab show chords e-chords YouTube Clip e-chords hide all tabs e-chords go to top tab

share