Blues Brothers

home > Blues Brothers

Soul Man Tab

Blues Brothers

Difficulty: ExpertExpert

by weezer+pillows

tuner correct add songbook print version text version save to e-mail
chordsukulelecavacokeyboardtabbassdrumsharmonicsflute Guitar Pro
chords

Soul Man

Year: 1992 - Album: The Blues Brothers Complete

  		STANDARD TUNING 
 
Intro 
|--------------------7~-------9------11---| 
|-----9~--9/7---7-------------------------|repeat 
|-----------------6/7---7-7/9--9-9/11--11-| 
|--7/9---9----7---------------------------| 
|-----------------------------------------| 
|-----------------------------------------| 
 
then 
|--0-0--0--0-0--0--| 
|--0-0--0--0-0--0--| 
|--1-1--1--1-1--1--|do that a few times 
|--2-2--2--2-2--2--| 
|--2-2--2--2-2--2--| 
|--0-0--0--0-0--0--| 
 
Verse (after each line) 
|--4-4--2-0--| 
|--5-5--2-0--| 
|------------| 
|------------| 
|------------| 
|------------| 
 
Chorus 
      E        D 
I'm a soul man 
      A        E 
I'm a soul man 
 
 
 

	  

Full key step upFull key step up
Half key step upHalf key step up
Half key step downHalf key step down
Full key step downFull key step down
Search Paypal
auto scroll beats size up size down change color hide chords drawings
tab show chords e-chords YouTube Clip e-chords hide all tabs e-chords go to top tab