Blind Boy Fuller

You Can Never Tell

Blind Boy Fuller

tabs Advanced advanced

by  ROWANE

save to print version add songbook text version e-mail correct tuner
chordsukulelecavacokeyboardtabbassdrumsharmonicaflute Guitar Pro
close

there isn't a video lesson for this song

chords

You Can Never Tell

Year: 2000 - Album: Screamin' and Cryin' Blues

	  		                                                                
E||--3--2--1-----0-----------------|-----------------3--------| 
B||-----------4-----1--------------|--1-----------------------| 
G||--------------------3--0--------|--------3--3-----------1--| 
D||--------------------------3--2--|--------------------2-----| 
A||--------------------------------|--3-----3-----3-----------| 
E||--------------------------------|-----3--------------------| 
 
 
                                                    
-------3----------------|-----3--------1----------| 
-------------1----------|-------------------------| 
--2-------2----------1--|--2--------2-------------| 
-------3----------3-----|--------3----------3-----| 
------------------------|-------------------------| 
--1----------1----------|--1-----------1-------3--| 
 
 
                                                               
----------------------------------|--------------------------| 
--1----3b-3--1-----------------1--|-----------------1--------| 
----------------3--0--------------|--------3--3-----------1--| 
----------------------4--3--2-----|--------------------2-----| 
--3-------------------------------|--3-----3-----------------| 
----------------------------------|-----3--------3-----------| 
 
 
                                                     
-------3--------3--------|-----3-------------------| 
-------------1-----------|--------------1----------| 
--2-------2-----------1--|--2--------2-------------| 
-------3-----------3-----|--------3----------3-----| 
-------------------------|-------------------------| 
--1----------1-----------|--1-----------1-------3--| 
 
 
                                                            
----------------------------------|-------3--3------------| 
--1----3b-3--1-----------------1--|-----------------------| 
----------------3--0--------------|-----------------------| 
----------------------4--3--2-----|-------2----------2----| 
--3-------------------------------|--3----------3---------| 
----------------------------------|-----------------------| 
 
 
                                                    
-------1-----1--3--------|-----3------------------| 
----------3--------------|-------------1----------| 
----------------------1--|--2---------------------| 
-------0-----------0-----|--------3----1----1-----| 
-------------------------|------------------------| 
--3----------3-----------|--1------------------3--| 
 
 
                                                              
----------------------------------|--------3--3----------1/-| 
--1-------1--------1-----1-----1--|--1-------------------3/-| 
-------3-----3--2-----2-----1-----|-----0-------------------| 
-------------------------1--------|--------------0----------| 
--3----3--------------------------|--3----------------------| 
----------------1-----------------|--------3----------3-----| 
 
 
                                                                    
--3--3--3--3--3--3--3--3--3--3--3--3--|--4/5--5--5--5---3---------| 
--5--5--5--5--5--5--5--5--5--5--5--5--|--5/6--6--6--6---4b--------| 
--------------------------------------|----------------------0----| 
--------------------------------------|---------------------------| 
--------------------------------------|---------------------------| 
--------------------------------------|---------------------------| 
 
 
                                                          
--------------------3--------|-----3--1-----3--1--------| 
--1--------1-----------------|-----------1--------1-----| 
--------3-----3--3--------1--|--2--------------------1--| 
--------2--------------2-----|--------3-----------3-----| 
--3--------------------------|--------------------------| 
-----3-----------3-----------|--1-----------1-----------| 
 
 
                                                             
--------3--1--------------------|-----3--------1--1--------| 
-----1--------3b-3--1-----3b-1--|--------------------------| 
--2--------------------2--------|--------------------------| 
-----------3--------------------|--------2-----------0-----| 
--------------------------------|--3-----------2-----------| 
--1-----------------------------|-----------3-----------3--| 
 
 
                                                                                 
-------3--3-----3--------|-----1--1-----1--3--------|--------3--1--------------| 
--1----------------------|-----------3--------------|-----1--------3b-3--1--1--| 
-------------------------|-----------------------1--|--2-----------------------| 
-------2-----------2-----|--------0-----------0-----|--------3-----------3-----| 
--3----------3-----------|--2-----------------------|--------------------------| 
----------------------3--|--------------3-----------|--1-----------1-----------| 
 
 
                                                             
-----------------------------------|----------------------|| 
-----------1--------1-----1-----1--|--------0----1--------|| 
--------3-----3--2-----2-----1-----|-----0-------3--------|| 
--------------------------1--------|--------0-------------|| 
--3-----3--------------------------|--3----------3--------|| 
-----3-----------1-----------------|----------------------|| 

		  

See also:

tabs Corey Smith - Twenty-One tabs Allman Brothers Band - Revival tabs Mississipi John Hurt - Stack O' Lee Blues tabs Blind Blake - Bad Feeling Blues tabs Stevie Ray Vaughn and Double Trouble - Life By The Drop tabs Albert King - Oh Pretty Woman
e-chords

Other versions:

tabs Blind Boy Fuller - You Can Never Tell
auto scroll beats size up size down change color hide chords drawings
tab show chords e-chords YouTube Clip e-chords hide all tabs e-chords go to top tab

share