Blind Boy Fuller

You've Got Something There

Blind Boy Fuller

tabs Intermediate intermediate

by  ROWANE

save to print version add songbook text version e-mail correct tuner
chordsukulelecavacokeyboardtabbassdrumsharmonicaflute Guitar Pro
close

there isn't a video lesson for this song

chords

You've Got Something There

Year: 1991 - Album: East Coast Piedmont Style

	  		You've Got Something There                             
Blind Boy Fuller 
 
 
 
 
                                                                             
E||--0----1----2----3----|-----------------------|--0-----1-----2-----3----| 
B||--1----3----4----5----|--1----1--1------------|--1--3--3--4--4--5--5----| 
G||----------------------|-----------------------|-------------------------| 
D||----------------------|-------2----------2----|-------------------------| 
A||----------------------|--3----------3---------|-------------------------| 
E||----------------------|-----------------------|-------------------------| 
 
 
                                                                            
-------------------------|-----------------------|--3----1--3-----1-------| 
--1--1-----------1-------|-------3----1--1-------|------------------------| 
-----------3-----3-------|-----------------------|------------------------| 
--------2-----------2----|-------3----------3----|-------3-----------3----| 
--3-----------3----------|-----------------------|------------------------| 
-------------------------|--1---------1----------|--1----------1----------| 
 
 
                                                                           
----------------------|--3--------3-----3--------|-------3----1--3-------| 
--3b---3b---1---------|--------1-----------------|-----------------------| 
----------------------|-----0--------------------|-----------------------| 
-------2---------2----|--------2-----------2-----|-------0----------0----| 
--3---------3---------|--3-----------3-----------|-----------------------| 
----------------------|-----------------------2--|--3---------3----------| 
 
 
                                                                           
--0---------------------|-----------------------|-------3--3------------|| 
--4b-1------------------|-----------------------|-----------------------|| 
--------2--0------------|--------3----2----1----|--0--------------------|| 
--------------3---------|--------2----3----1----|-------------0---------|| 
------------------------|--3--3-----------------|-----------------------|| 
-------------------3----|-----------------------|--3----3----------3----|| 

		  

See also:

tabs Corey Smith - Twenty-One tabs Allman Brothers Band - Revival tabs Mississipi John Hurt - Stack O' Lee Blues tabs Blind Blake - Bad Feeling Blues tabs Stevie Ray Vaughn and Double Trouble - Life By The Drop tabs Albert King - Oh Pretty Woman
e-chords

Other versions:

tabs Blind Boy Fuller - You've Got Something There
auto scroll beats size up size down change color hide chords drawings
tab show chords e-chords YouTube Clip e-chords hide all tabs e-chords go to top tab

share