Beartooth

I Have A Problem

Beartooth

tabs

by  UBIRBOMFIM

save to print version add songbook text version e-mail correct tuner
chordsukulelecavacokeyboardtabbassdrumsharmonicaflute Guitar Pro
close

there isn't a video lesson for this song

chords

I Have A Problem

	  		

Tuning: Drop C 

Ok, so this is my first tab, I think it's mostly correct but there may be small  
things here and there, 
if you have any questions, comments, concerns, etc. feel free to e-mail or message me. Anyways, 
amazing song by Beartooth, they keep this up then they've got a nice future ahead of them.  
I'm excited to hear their EP soon! Anyways, enjoy the tab!!!!! 



Lead: 
D|---------------------------------------------------------------------------| 
A|---------------------------------------------------------------------------| 
F|---------------------------------------------------------------------------| 
C|7-------8-------8-------7-------6------------------------------------------| 
G|5-x20---5-x8----4-x12---5-x10---5-x4---------------------------------------| 
C|---------------------------------------------------------------------------|x4 
                                  ^                                                
       All palm muted except the  | the 2nd time round 
Rhythm: 

D|--------------------------------------------------------------------------| 
A|--------------------------------------------------------------------------| 
F|--------------------------------------------------------------------------| 
C|0-0--0-0--0-0---------------------------------0-0--0-0--0-0---------------| 
G|0-0--0-0--0-0---------------------------------0-0--0-0--0-0---------------| 
C|0-0--0-0--0-0---------------------------------0-0--0-0--0-0---------------| 


Both: 
D|-------------------------------------------------------------| 
A|-------------------------------------------------------------| 
F|-------------------------------------------------------------| 
C|0-0-0-0-0-0-0-0-0-0-0-0-0-0-0-0-0-0-0-0-0-0-0-0-0-0-0-0-0-0-0| 
G|0-0-0-0-0-0-0-0-0-0-0-0-0-0-0-0-0-0-0-0-0-0-0-0-0-0-0-0-0-0-0| 
C|0-0-0-0-0-0-0-0-0-0-0-0-0-0-0-0-0-0-0-0-0-0-0-0-0-0-0-0-0-0-0| X2 
   I found my vice... 
   (really just constant strumming, not a whole lot to it) 

D|----------------------------------------------------------------------------| 
A|----------------------------------------------------------------------------| 
F|----------------------------------------------------------------------------| 
C|(0)~~~~^----------------------------------------------------****------------| 
G|(0)~~~~^----------------------------------------------------****------------| 
C|(0)~~~~^----------------------------------------------------****------------| 
(There's a little bend up, just pull back on the head a tad bit)  GO!!!    
                                                                 
D|---------------------------------------------------------------------------| 
A|---------------------------------------------------------------------------| 
F|---------------------------------------------------------------------------| 
C|--8-------7-------5-------------0------------------------------------------| 
G|--8-------7-------5-------------0------------------------------------------| 
C|--8-x32---7-x32---5-x32---0-3^--0-x28--------------------------------------|X2 

D|---------------------------------------------------------------------------| 
A|---------------------------------------------------------------------------| 
F|---------------------------------------------------------------------------| 
C|---/12--0--/12--0----/12--0--/12--0--/12-0---------------------------------| 
G|---/12--0--/12--0----/12--0--/12--0--/12-0---------------------------------| 
C|---/12--0--/12--0----/12--0--/12--0--/12-0---------------------------------|X4 


Lead: 
D|---------------------------------------------------------------------------| 
A|---------------------------------------------------------------------------| 
F|---------------------------------------------------------------------------| 
C|7-------8-------8-------7-------6------------------------------------------| 
G|5-x20---5-x8----4-x12---5-x10---5-x4---------------------------------------| 
C|---------------------------------------------------------------------------|x2 

Rhythm: 
D|---------------------------------------------------------------------------| 
A|---------------------------------------------------------------------------| 
F|---------------------------------------------------------------------------| 
C|0-0--0-0--0-0------0-0--0-0--0-0-------------------------------------------| 
G|0-0--0-0--0-0------0-0--0-0--0-0-------------------------------------------| 
C|0-0--0-0--0-0------0-0--0-0--0-0-------------------------------------------| 
   I guess the bottle can't save my life... 


Both: 

Chorus 
D|---------------------------------------------------------------------------| 
A|---------------------------------------------------------------------------| 
F|---------------------------------------------------------------------------| 
C|-----8---------10---------5----------7-------------------------------------| 
G|-----8---------10---------5----------7-------------------------------------| 
C|-----8-x8------10-x8------5-x12------7-x4----------------------------------|x2 
   This is my reward... 

D|--------------------------------------------------------------------------------| 
A|--------------------------------------------------------------------------------| 
F|13^----13^---13^------------13^------13-13^-------------------------------------| 
C|----0------0-----0------****--------0-----------0--00---0-0--****---------------| 
G|----0------0-----0------****--------0-----------0--00---0-0--****--0-00--00-----| 
C|----0------0-----0------****--------0-----------0--00---0-0--****--0-00--00-----|x2 
   Standing up just to fall back down... 

D|--------------------0~-------------------------0~------------------------------| 
A|--------------------0~-------------------------0~------------------------------| 
F|--------------------0~-------------------------0~------------------------------| 
C|---0~---0~----0~----0~--------0~---0~----0~----0~---------****-----------------| 
G|---0~---0~----0~----0~--------0~---0~----0~----0~---------****-----------------| 
C|---0~---0~----0~----0~--------0~---0~----0~----0~---------****-----------------|x2 
  SUB - STANCE  THERAPY        NEV - ER    SET ME FREE      (1st time only)            

                                                    
Lead: 
D|---------------------------------------------------------------------------| 
A|---------------------------------------------------------------------------| 
F|---------------------------------------------------------------------------| 
C|7-------8-------8-------7-------6------------------------------------------| 
G|5-x20---5-x8----4-x12---5-x10---5-x4---------------------------------------| 
C|---------------------------------------------------------------------------|x4 
                                  ^ 
       All palm muted except the  | the 2nd time round 
Rhythm: 
D|-------------------------------------------------------------------------------| 
A|-------------------------------------------------------------------------------| 
F|-------------------------------------------------------------------------------| 
C|0-0--0-0--0-0------0-0--0-0--0-0----------0-0--0-0--0-0------0-0--0-0--0-0-----| 
G|0-0--0-0--0-0------0-0--0-0--0-0----------0-0--0-0--0-0------0-0--0-0--0-0-----| 
C|0-0--0-0--0-0------0-0--0-0--0-0----------0-0--0-0--0-0------0-0--0-0--0-0-----|x2 
   I guess the bottle can't save my life... 


Both: 

Chorus 
D|---------------------------------------------------------------------------| 
A|---------------------------------------------------------------------------| 
F|---------------------------------------------------------------------------| 
C|-----8---------10---------5----------7-------------------------------------| 
G|-----8---------10---------5----------7-------------------------------------| 
C|-----8-x8------10-x8------5-x12------7-x4----------------------------------|x2 
   This is my reward... 



   I DON'T KNOW ABOUT YOU BUT I'M ADMITTING NOW THAT I HAVE A problem. AAGH!!! 
D|--------------------------------------------------------------------------------| 
A|--------------------------------------------------------------------------------| 
F|13^----13^---13^------------13^------13-13^-------------------------------------| 
C|----0------0-----0------****--------0-----------0--00---0-0--****---------------| 
G|----0------0-----0------****--------0-----------0--00---0-0--****--0-00--00-----| 
C|----0------0-----0------****--------0-----------0--00---0-0--****--0-00--00-----|x2 
    
D|---0------------0-----------------0-------------------------------------------| 
A|---0------------0-----------------0-------------------------------------------| 
F|---0------------0-----------------0-------------------------------------------| 
C|1-----1--0--1------****---1-1--0----------------------------------------------| 
G|1-----1--0--1------****---1-1--0----------------------------------------------| 
C|1-----1--0--1------****---1-1--0----------------------------------------------|x2 
   I have a problem... 

D|-----------------------------------------------------------------------------| 
A|-----------------------------------------------------------------------------| 
F|----13^---13^------------13^------13-13^-------------------------------------| 
C|--------0-----0------****--------0-----------0--00---0-0--****---------------| 
G|--------0-----0------****--------0-----------0--00---0-0--****--0-00--00-----| 
C|--------0-----0------****--------0-----------0--00---0-0--****--0-00--00-----| 

Key: 
~ Hold note 
^ Bend note 
* Lift fretting hand slightly 
/ Slide 


And that's about it... ENJOY!!! 
		  

Full key step upFull key step up
Half key step upHalf key step up
Half key step downHalf key step down
Full key step downFull key step down
hide glossary

See also:

tabs Deep Purple - Demonds Eye tabs Deep Purple - Money Talks tabs Ira! - Eu Quero Sempre Mais (Com Pitty, intro) tabs Albert Hammond Jr - Holiday tabs Deep Purple - Smoke on the water (intro) tabs Deep Purple - Smoke on the Water (ver. 2)
e-chords

Other versions:

tabs Beartooth - I Have A Problem
auto scroll beats size up size down change color hide chords drawings
tab show chords e-chords YouTube Clip e-chords hide all tabs e-chords go to top tab

share