Beartooth

Rock Is Dead

Beartooth

bass

by  ROBEPOIEL

save to print version add songbook text version e-mail correct tuner
chordsukulelecavacokeyboardtabbassdrumsharmonicaflute Guitar Pro
close

there isn't a video lesson for this song

chords

Rock Is Dead

	  		Intro x8 
F|---------------------------------------------------------------------------| 
C|---------------------------------------------------------------------------| 
G|-------5-------------------------------------------------------------------| 
C|-7-5-7---7-5-7~575757------------------------------------------------------| 

Verse x4 
F|---------------------------------------------------------------------------| 
C|---------------------------------------------------------------------------| 
G|-0000-000-3-3-3----------5-5-5---------------------------------------------| 
C|----------------5555-555---------------------------------------------------| 

Bridge (Bass doesn't actually play but you can harmonize as such) 

F|---------------------------------------------------------------------------| 
C|---------------------------------------------------------------------------| 
G|---------------------------------------------------------------------------| 
C|--6-7h-7-7-777-(x7)-7777---------------------------------------------------| 

Chorus 
F|---------------------------------------------------------------------------| 
C|---------------------------------------------------------------------------| 
G|---------------------------------------------------------------------------| 
C|--33333333333333-55/7777777777777777-(x2)----------------------------------| 

F|---------------------------------------------------------------------------| 
C|---------------------------------------------------------------------------| 
G|--55555555555555-----------------------------------------------------------| 
C|-----------------55/7777777777777777---------------------------------------| 

F|---------------------------------------------------------------------------| 
C|---------------------------------------------------------------------------| 
G|---------------------------------------------------------------------------| 
C|--33333333333333-55/7777777777777777---------------------------------------| 

Instrumental x4 
F|---------------------------------------------------------------------------| 
C|---------------------------------------------------------------------------| 
G|-------5-------------------------------------------------------------------| 
C|-7-5-7---7-5-7~575757------------------------------------------------------| 

Verse x4 
F|---------------------------------------------------------------------------| 
C|---------------------------------------------------------------------------| 
G|-0000-000-3-3-3----------5-5-5---------------------------------------------| 
C|----------------5555-555---------------------------------------------------| 

Bridge (Bass doesn't actually play but you can harmonize as such) 

F|---------------------------------------------------------------------------| 
C|---------------------------------------------------------------------------| 
G|---------------------------------------------------------------------------| 
C|--6-7h-7-7-777-(x7)-7777---------------------------------------------------| 

Chorus 
F|---------------------------------------------------------------------------| 
C|---------------------------------------------------------------------------| 
G|---------------------------------------------------------------------------| 
C|--33333333333333-55/7777777777777777-(x2)----------------------------------| 

F|---------------------------------------------------------------------------| 
C|---------------------------------------------------------------------------| 
G|--55555555555555-----------------------------------------------------------| 
C|-----------------55/7777777777777777---------------------------------------| 

F|---------------------------------------------------------------------------| 
C|---------------------------------------------------------------------------| 
G|---------------------------------------------------------------------------| 
C|--33333333333333-55/7777777777777777---------------------------------------| 

Build up (You can also play the bridge a few times before this note) 
F|---------------------------------------------------------------------------| 
C|---------------------------------------------------------------------------| 
G|---------------------------------------------------------------------------| 
C|--7~~~~--------------------------------------------------------------------| 

Breakdown x8 
F|---------------------------------------------------------------------------| 
C|---------------------------------------------------------------------------| 
G|---------------------------------------------------------------------------| 
C|--pbr7-7-7-br7-7-7-br7-7-7-7-----------------------------------------------| 

Chorus 
F|---------------------------------------------------------------------------| 
C|---------------------------------------------------------------------------| 
G|---------------------------------------------------------------------------| 
C|--33333333333333-55/7777777777777777-(x2)----------------------------------| 

F|---------------------------------------------------------------------------| 
C|---------------------------------------------------------------------------| 
G|--55555555555555-----------------------------------------------------------| 
C|-----------------55/7777777777777777---------------------------------------| 

F|---------------------------------------------------------------------------| 
C|---------------------------------------------------------------------------| 
G|---------------------------------------------------------------------------| 
C|--33333333333333-55/7777777777777777---------------------------------------| 

Outro x4 
F|---------------------------------------------------------------------------| 
C|---------------------------------------------------------------------------| 
G|-------5-------------------------------------------------------------------| 
C|-7-5-7---7-5-7~575757------------------------------------------------------| 



************************************ 

| ~    Vibrato 
| h    Hammer-on 
| /    Slide up 
| br   Bend release 
| pbr  Pre-bend release 
     

************************************ 
		  

See also:

bass Deep Purple - Burn bass Deep Purple - Child in time bass Deep Purple - Smoke On The Water bass Deep Purple - Lady Double Dealer bass Deep Purple - Fire Ball bass Deep Purple - Smoke On The Water (ver. 3)
e-chords

Other versions:

bass Beartooth - Rock Is Dead
auto scroll beats size up size down change color hide chords drawings
tab show chords e-chords YouTube Clip e-chords hide all tabs e-chords go to top tab

share