Beartooth

One More

Beartooth

tabs

by  ALYSLIMA

save to print version add songbook text version e-mail correct tuner
chordsukulelecavacokeyboardtabbassdrumsharmonicaflute Guitar Pro
close

there isn't a video lesson for this song

chords

One More

	  		

Legend 
L - tied note 
x - dead note 
h - hammer on/pull off 
b - bend 
s - slide 
~ - vibrato 
g - ghost note 
> - accentuated note 
t - trill 
M - palm mute 
. - staccato 
P - popping (bass) 
S - slapping (bass) 
+ - tapping 
W - wide vibrato 
< - fade in 
w - whammy bar 
= - tremolo picking 
v - brush up 
^ - brush down 
V - pick stroke up 
n - pick stroke down 


ORDER OF GUITARS: 
1.) Guitar 1 
2.) Guitar 2  
3.) Bass 


GUITAR 1 

     =       =        =  =                =       =       =      
D |-------|----------------------------|-------|-------|-------| 
A |--10---|--6--------8--8-------------|--8----|--8----|--10---| 
F |--10---|--5--------5--5-------------|--7----|--7----|--10---| 
C |-------|--3--------3--3-------------|--5----|-------|-------| 
G |--8----|----------------------------|-------|--5----|--8----| 
C |-------|----------------------------|-------|-------|-------| 

  =        =  =                =       =       =      
----------------------------|-------|-------|-------| 
--6--------8--8-------------|--8----|--8----|--10---| 
--5--------5--5-------------|--7----|--7----|--10---| 
--3--------3--3-------------|--5----|-------|-------| 
----------------------------|-------|--5----|--8----| 
----------------------------|-------|-------|-------| 

  =        =  =                =       =       =      
----------------------------|-------|-------|-------| 
--6--------8--8-------------|--8----|--8----|--10---| 
--5--------5--5-------------|--7----|--7----|--10---| 
--3--------3--3-------------|--5----|-------|-------| 
----------------------------|-------|--5----|--8----| 
----------------------------|-------|-------|-------| 

  =        =  =                =       =       =      
----------------------------|-------|-------|-------| 
--6--------8--8-------------|--8----|--8----|--10---| 
--5--------5--5-------------|--7----|--7----|--10---| 
--3--------3--3-------------|--5----|-------|-------| 
----------------------------|-------|--5----|--8----| 
----------------------------|-------|-------|-------| 

  =        =  =                =       =       =      
----------------------------|-------|-------|-------| 
--6--------8--8-------------|--8----|--8----|--10---| 
--5--------5--5-------------|--7----|--7----|--10---| 
--3--------3--3-------------|--5----|-------|-------| 
----------------------------|-------|--5----|--8----| 
----------------------------|-------|-------|-------| 

  =        =  =                =       =      
----------------------------|-------|-------| 
--6--------8--8-------------|--8----|--8----| 
--5--------5--5-------------|--7----|--7----| 
--3--------3--3-------------|--5----|-------| 
----------------------------|-------|--5----| 
----------------------------|-------|-------| 

                                                      
----------------------------------------------------| 
----------------------------------------------------| 
----------------------------------------------------| 
--8b----------8b----------8b----------0M-0M-12L-----| 
--8b----------8b----------8b----------0M-0M-12L-----| 
--8b----------8b----------8b----------0M-0M-12L-----| 

                              
----------------------------| 
----------------------------| 
----------------------------| 
--12-0-----3--------3--3----| 
--12-0-----3--------3--3----| 
--12-0-----3--------3--3----| 

                                                      
----------------------------------------------------| 
----------------------------------------------------| 
----------------------------------------------------| 
--8b----------8b----------8b----------0M-0M-12L-----| 
--8b----------8b----------8b----------0M-0M-12L-----| 
--8b----------8b----------8b----------0M-0M-12L-----| 

                                                      
----------------------------------------------------| 
----------------------------------------------------| 
----------------------------------------------------| 
--12----0-----------5-----------------5-----5L-5----| 
--12----0-----------5-----------------5-----5L-5----| 
--12----0-------------------------------------------| 

                                                      
----------------------------------------------------| 
----------------------------------------------------| 
----------------------------------------------------| 
--8b----------8b----------8b----------0M-0M-12L-----| 
--8b----------8b----------8b----------0M-0M-12L-----| 
--8b----------8b----------8b----------0M-0M-12L-----| 

                              
----------------------------| 
----------------------------| 
----------------------------| 
--12-0-----3--------3--3----| 
--12-0-----3--------3--3----| 
--12-0-----3--------3--3----| 

                                                      
----------------------------------------------------| 
----------------------------------------------------| 
----------------------------------------------------| 
--8b----------8b----------8b----------0M-0M-12L-----| 
--8b----------8b----------8b----------0M-0M-12L-----| 
--8b----------8b----------8b----------0M-0M-12L-----| 

                                                       =      
----------------------------------------------------|-------| 
----------------------------------------------------|--10---| 
----------------------------------------------------|--10---| 
--12----0-----------5-----------------5-----5L-5----|-------| 
--12----0-----------5-----------------5-----5L-5----|--8----| 
--12----0-------------------------------------------|-------| 

  =        =  =                =       =       =      
----------------------------|-------|-------|-------| 
--6--------8--8-------------|--8----|--8----|--10---| 
--5--------5--5-------------|--7----|--7----|--10---| 
--3--------3--3-------------|--5----|-------|-------| 
----------------------------|-------|--5----|--8----| 
----------------------------|-------|-------|-------| 

  =        =  =                =       =       =      
----------------------------|-------|-------|-------| 
--6--------8--8-------------|--8----|--8----|--10---| 
--5--------5--5-------------|--7----|--7----|--10---| 
--3--------3--3-------------|--5----|-------|-------| 
----------------------------|-------|--5----|--8----| 
----------------------------|-------|-------|-------| 

  =        =  =                =       =                                      
----------------------------|-------|-------|-------|-------|-------|-------| 
--6--------8--8-------------|--8----|--8----|-------|-------|-------|-------| 
--5--------5--5-------------|--7----|--7----|-------|-------|-------|-------| 
--3--------3--3-------------|--5----|-------|-------|-------|-------|-------| 
----------------------------|-------|--5----|-------|-------|-------|-------| 
----------------------------|-------|-------|-------|-------|-------|-------| 

                                 
-------|-------|-------|--0----| 
-------|-------|-------|--0----| 
-------|-------|-------|--0----| 
--0L---|--0L---|--0L---|--0----| 
--0L---|--0L---|--0L---|--0----| 
--0L---|--0L---|--0L---|--0----| 

                                                      
----------------------------------------------------| 
----------------------------------------------------| 
----------------------------------------------------| 
--8b----------8b----------8b----------0M-0M-12L-----| 
--8b----------8b----------8b----------0M-0M-12L-----| 
--8b----------8b----------8b----------0M-0M-12L-----| 

                              
----------------------------| 
----------------------------| 
----------------------------| 
--12-0-----3--------3--3----| 
--12-0-----3--------3--3----| 
--12-0-----3--------3--3----| 

                                                      
----------------------------------------------------| 
----------------------------------------------------| 
----------------------------------------------------| 
--8b----------8b----------8b----------0M-0M-12L-----| 
--8b----------8b----------8b----------0M-0M-12L-----| 
--8b----------8b----------8b----------0M-0M-12L-----| 

                                                      
----------------------------------------------------| 
----------------------------------------------------| 
----------------------------------------------------| 
--12----0-----------5-----------------5-----5L-5----| 
--12----0-----------5-----------------5-----5L-5----| 
--12----0-------------------------------------------| 

                                                      
----------------------------------------------------| 
----------------------------------------------------| 
----------------------------------------------------| 
--8b----------8b----------8b----------0M-0M-12L-----| 
--8b----------8b----------8b----------0M-0M-12L-----| 
--8b----------8b----------8b----------0M-0M-12L-----| 

                              
----------------------------| 
----------------------------| 
----------------------------| 
--12-0-----3--------3--3----| 
--12-0-----3--------3--3----| 
--12-0-----3--------3--3----| 

                                                      
----------------------------------------------------| 
----------------------------------------------------| 
----------------------------------------------------| 
--8b----------8b----------8b----------0M-0M-12L-----| 
--8b----------8b----------8b----------0M-0M-12L-----| 
--8b----------8b----------8b----------0M-0M-12L-----| 

                                                       =      
----------------------------------------------------|-------| 
----------------------------------------------------|--10---| 
----------------------------------------------------|--10---| 
--12----0-----------5-----------------5-----5L-5----|-------| 
--12----0-----------5-----------------5-----5L-5----|--8----| 
--12----0-------------------------------------------|-------| 

  =        =  =                =       =       =      
----------------------------|-------|-------|-------| 
--6--------8--8-------------|--8----|--8----|--10---| 
--5--------5--5-------------|--7----|--7----|--10---| 
--3--------3--3-------------|--5----|-------|-------| 
----------------------------|-------|--5----|--8----| 
----------------------------|-------|-------|-------| 

  =        =  =                =       =       =      
----------------------------|-------|-------|-------| 
--6--------8--8-------------|--8----|--8----|--10---| 
--5--------5--5-------------|--7----|--7----|--10---| 
--3--------3--3-------------|--5----|-------|-------| 
----------------------------|-------|--5----|--8----| 
----------------------------|-------|-------|-------| 

  =        =  =                =       =       =      
----------------------------|-------|-------|-------| 
--6--------8--8-------------|--8----|--8----|--10---| 
--5--------5--5-------------|--7----|--7----|--10---| 
--3--------3--3-------------|--5----|-------|-------| 
----------------------------|-------|--5----|--8----| 
----------------------------|-------|-------|-------| 

  =        =  =                =       =       =      
----------------------------|-------|-------|-------| 
--6--------8--8-------------|--8----|--8----|--10---| 
--5--------5--5-------------|--7----|--7----|--10---| 
--3--------3--3-------------|--5----|-------|-------| 
----------------------------|-------|--5----|--8----| 
----------------------------|-------|-------|-------| 

  =        =  =                =       =       =       =       =       =      
----------------------------|-------|-------|-------|-------|-------|-------| 
--6--------8--8-------------|--8----|--8----|--8----|--8----|--3----|--3----| 
--5--------5--5-------------|--7----|--7----|--7----|--7----|--3----|--3----| 
--3--------3--3-------------|--5----|-------|--5----|--5----|--3----|--3----| 
----------------------------|-------|--5----|--5----|--5----|--1----|--1----| 
----------------------------|-------|-------|--5----|--5----|--1----|--1----| 

  =       =       =       =       =       =       =       =       =       =      
-------|-------|-------|-------|-------|-------|-------|-------|-------|-------| 
--6----|--6----|--5----|--5----|--8----|--8----|--3----|--3----|--6----|--6----| 
--7----|--7----|--5----|--5----|--7----|--7----|--3----|--3----|--7----|--7----| 
--7----|--7----|--5----|--5----|--5----|--5----|--3----|--3----|--7----|--7----| 
--5----|--5----|--3----|--3----|--5----|--5----|--1----|--1----|--5----|--5----| 
--0----|--0----|-------|-------|--5----|--5----|--1----|--1----|--0----|--0----| 

  =       =                                       =      
-------|-------|-------|-------|-------|-------|-------| 
--5----|--5----|--8L---|--8L---|--8L---|--8----|--10---| 
--5----|--5----|--7L---|--7L---|--7L---|--7----|--10---| 
--5----|--5----|--5L---|--5L---|--5L---|--5----|-------| 
--3----|--3----|--5L---|--5L---|--5L---|--5----|--8----| 
-------|-------|--5L---|--5L---|--5L---|--5----|-------| 

  =        =  =                =       =       =      
----------------------------|-------|-------|-------| 
--6--------8--8-------------|--8----|--8----|--10---| 
--5--------5--5-------------|--7----|--7----|--10---| 
--3--------3--3-------------|--5----|-------|-------| 
----------------------------|-------|--5----|--8----| 
----------------------------|-------|-------|-------| 

  =        =  =                =       =       =      
----------------------------|-------|-------|-------| 
--6--------8--8-------------|--8----|--8----|--10---| 
--5--------5--5-------------|--7----|--7----|--10---| 
--3--------3--3-------------|--5----|-------|-------| 
----------------------------|-------|--5----|--8----| 
----------------------------|-------|-------|-------| 

  =        =  =                =       =       =      
----------------------------|-------|-------|-------| 
--6--------8--8-------------|--8----|--8----|--10---| 
--5--------5--5-------------|--7----|--7----|--10---| 
--3--------3--3-------------|--5----|-------|-------| 
----------------------------|-------|--5----|--8----| 
----------------------------|-------|-------|-------| 

  =        =  =                =       =       =      
----------------------------|-------|-------|-------| 
--6--------8--8-------------|--8----|--8----|--10---| 
--5--------5--5-------------|--7----|--7----|--10---| 
--3--------3--3-------------|--5----|-------|-------| 
----------------------------|-------|--5----|--8----| 
----------------------------|-------|-------|-------| 

  =        =  =                =       = 
----------------------------|-------|-------|----|----|| 
--6--------8--8-------------|--8----|--8----|----|----|| 
--5--------5--5-------------|--7----|--7----|----|----|| 
--3--------3--3-------------|--5----|-------|----|----|| 
----------------------------|-------|--5----|----|----|| 
----------------------------|-------|-------|----|----|| 




GUITAR 2 




D |-------|-------|-------|-------|-------|-------|-------|-------| 
A |-------|-------|-------|-------|-------|-------|-------|-------| 
F |-------|-------|-------|-------|-------|-------|-------|-------| 
C |-------|-------|-------|-------|-------|-------|-------|-------| 
G |-------|-------|-------|-------|-------|-------|-------|-------| 
C |-------|-------|-------|-------|-------|-------|-------|-------| 

              =                                       
----------------------------------------------------| 
----------------------------------------------------| 
--------------7-----------------------7-------------| 
--0-----0-----x-----------------------x--0----------| 
--0-----0-----5-----------------------5--0----------| 
--0-----0--------------------------------0----------| 

                                                      
----------------------------------------------------| 
----------------------------------------------------| 
----------------------------------------------------| 
--3-----3-----3M-3M-3-----3-----3M-3M-3-----3M-3M---| 
--3-----3-----3M-3M-3-----3-----3M-3M-3-----3M-3M---| 
--3-----3-----3M-3M-3-----3-----3M-3M-3-----3M-3M---| 

              =                                       
----------------------------------------------------| 
----------------------------------------------------| 
--------------12----------------------12------------| 
--10----10----x-----------------------x--10---------| 
--10----10----10----------------------10-10---------| 
--10----10-------------------------------10---------| 

                                                      
----------------------------------------------------| 
----------------------------------------------------| 
----------------------------------------------------| 
--5-----5-----5M-5M-5-----5-----5M-5M-5-----5M-5M---| 
--5-----5-----5M-5M-5-----5-----5M-5M-5-----5M-5M---| 
--5-----5-----5M-5M-5-----5-----5M-5M-5-----5M-5M---| 

              =                                       
----------------------------------------------------| 
----------------------------------------------------| 
--------------7-----------------------7-------------| 
--0-----0-----x-----------------------x--0----------| 
--0-----0-----5-----------------------5--0----------| 
--0-----0--------------------------------0----------| 

                                                      
----------------------------------------------------| 
----------------------------------------------------| 
----------------------------------------------------| 
--3-----3-----3M-3M-3-----3-----3M-3M-3-----3M-3M---| 
--3-----3-----3M-3M-3-----3-----3M-3M-3-----3M-3M---| 
--3-----3-----3M-3M-3-----3-----3M-3M-3-----3M-3M---| 

              =                                       
----------------------------------------------------| 
----------------------------------------------------| 
--------------12----------------------12------------| 
--10----10----x-----------------------x--10---------| 
--10----10----10----------------------10-10---------| 
--10----10-------------------------------10---------| 

                                                       =       =       =      
----------------------------------------------------|-------|-------|-------| 
----------------------------------------------------|-------|-------|-------| 
----------------------------------------------------|-------|-------|-------| 
--5-----5-----5M-5M-5-----5-----5M-5M-5-----5M-5M---|-------|-------|-------| 
--5-----5-----5M-5M-5-----5-----5M-5M-5-----5M-5M---|-------|-------|-------| 
--5-----5-----5M-5M-5-----5-----5M-5M-5-----5M-5M---|--0----|--3----|--10---| 

  =       =       =       =       =      
-------|-------|-------|-------|-------| 
-------|-------|-------|-------|-------| 
-------|-------|-------|-------|-------| 
-------|-------|-------|-------|-------| 
-------|-------|-------|-------|-------| 
--9----|--0----|--3----|--10---|--9----| 

                                                      
----------------------------------------------------| 
----------------------------------------------------| 
----------------------------------------------------| 
--8b----------8b----------8b----------0M-0M-12L-----| 
--8b----------8b----------8b----------0M-0M-12L-----| 
--8b----------8b----------8b----------0M-0M-12L-----| 

                              
----------------------------| 
----------------------------| 
----------------------------| 
--12-0-----3--------3--3----| 
--12-0-----3--------3--3----| 
--12-0-----3--------3--3----| 

                                                      
----------------------------------------------------| 
----------------------------------------------------| 
----------------------------------------------------| 
--8b----------8b----------8b----------0M-0M-12L-----| 
--8b----------8b----------8b----------0M-0M-12L-----| 
--8b----------8b----------8b----------0M-0M-12L-----| 

                                                      
----------------------------------------------------| 
----------------------------------------------------| 
--------------------7-----------------7-----7L-7----| 
--12----0-----------7-----------------7-----7L-7----| 
--12----0-------------------------------------------| 
--12----0-------------------------------------------| 

                                                      
----------------------------------------------------| 
----------------------------------------------------| 
----------------------------------------------------| 
--8b----------8b----------8b----------0M-0M-12L-----| 
--8b----------8b----------8b----------0M-0M-12L-----| 
--8b----------8b----------8b----------0M-0M-12L-----| 

                              
----------------------------| 
----------------------------| 
----------------------------| 
--12-0-----3--------3--3----| 
--12-0-----3--------3--3----| 
--12-0-----3--------3--3----| 

                                                      
----------------------------------------------------| 
----------------------------------------------------| 
----------------------------------------------------| 
--8b----------8b----------8b----------0M-0M-12L-----| 
--8b----------8b----------8b----------0M-0M-12L-----| 
--8b----------8b----------8b----------0M-0M-12L-----| 

                                                                              
----------------------------------------------------|-------|-------|-------| 
----------------------------------------------------|-------|-------|-------| 
--------------------7-----------------7-----7L-7----|-------|-------|-------| 
--12----0-----------7-----------------7-----7L-7----|-------|-------|-------| 
--12----0-------------------------------------------|-------|-------|-------| 
--12----0-------------------------------------------|-------|-------|-------| 

                      =                                       
-------|----------------------------------------------------| 
-------|----------------------------------------------------| 
-------|--------------7-----------------------7-------------| 
-------|--0-----0-----x-----------------------x--0----------| 
-------|--0-----0-----5-----------------------5--0----------| 
-------|--0-----0--------------------------------0----------| 

                                                      
----------------------------------------------------| 
----------------------------------------------------| 
----------------------------------------------------| 
--3-----3-----3M-3M-3-----3-----3M-3M-3-----3M-3M---| 
--3-----3-----3M-3M-3-----3-----3M-3M-3-----3M-3M---| 
--3-----3-----3M-3M-3-----3-----3M-3M-3-----3M-3M---| 

              =                                       
----------------------------------------------------| 
----------------------------------------------------| 
--------------12----------------------12------------| 
--10----10----x-----------------------x--10---------| 
--10----10----10----------------------10-10---------| 
--10----10-------------------------------10---------| 

                                                      
----------------------------------------------------| 
----------------------------------------------------| 
----------------------------------------------------| 
--5-----5-----5M-5M-5-----5-----5M-5M-5-----5M-5M---| 
--5-----5-----5M-5M-5-----5-----5M-5M-5-----5M-5M---| 
--5-----5-----5M-5M-5-----5-----5M-5M-5-----5M-5M---| 

              =                                       
----------------------------------------------------| 
----------------------------------------------------| 
--------------7-----------------------7-------------| 
--0-----0-----x-----------------------x--0----------| 
--0-----0-----5-----------------------5--0----------| 
--0-----0--------------------------------0----------| 

                                                      
----------------------------------------------------| 
----------------------------------------------------| 
----------------------------------------------------| 
--3-----3-----3M-3M-3-----3-----3M-3M-3-----3M-3M---| 
--3-----3-----3M-3M-3-----3-----3M-3M-3-----3M-3M---| 
--3-----3-----3M-3M-3-----3-----3M-3M-3-----3M-3M---| 

              =                                       
----------------------------------------------------| 
----------------------------------------------------| 
--------------12----------------------12------------| 
--10----10----x-----------------------x--10---------| 
--10----10----10----------------------10-10---------| 
--10----10-------------------------------10---------| 

                                                                              
----------------------------------------------------|-------|-------|-------| 
----------------------------------------------------|-------|-------|-------| 
----------------------------------------------------|-------|-------|-------| 
--5-----5-----5M-5M-5-----5-----5M-5M-5-----5M-5M---|-------|-------|-------| 
--5-----5-----5M-5M-5-----5-----5M-5M-5-----5M-5M---|-------|-------|-------| 
--5-----5-----5M-5M-5-----5-----5M-5M-5-----5M-5M---|-------|-------|-------| 

                                         
-------|-------|-------|-------|--0----| 
-------|-------|-------|-------|--0----| 
-------|-------|-------|-------|--0----| 
-------|--0L---|--0L---|--0L---|--0----| 
-------|--0L---|--0L---|--0L---|--0----| 
-------|--0L---|--0L---|--0L---|--0----| 

                                                      
----------------------------------------------------| 
----------------------------------------------------| 
----------------------------------------------------| 
--8b----------8b----------8b----------0M-0M-12L-----| 
--8b----------8b----------8b----------0M-0M-12L-----| 
--8b----------8b----------8b----------0M-0M-12L-----| 

                              
----------------------------| 
----------------------------| 
----------------------------| 
--12-0-----3--------3--3----| 
--12-0-----3--------3--3----| 
--12-0-----3--------3--3----| 

                                                      
----------------------------------------------------| 
----------------------------------------------------| 
----------------------------------------------------| 
--8b----------8b----------8b----------0M-0M-12L-----| 
--8b----------8b----------8b----------0M-0M-12L-----| 
--8b----------8b----------8b----------0M-0M-12L-----| 

                                                      
----------------------------------------------------| 
----------------------------------------------------| 
--------------------7-----------------7-----7L-7----| 
--12----0-----------7-----------------7-----7L-7----| 
--12----0-------------------------------------------| 
--12----0-------------------------------------------| 

                                                      
----------------------------------------------------| 
----------------------------------------------------| 
----------------------------------------------------| 
--8b----------8b----------8b----------0M-0M-12L-----| 
--8b----------8b----------8b----------0M-0M-12L-----| 
--8b----------8b----------8b----------0M-0M-12L-----| 

                              
----------------------------| 
----------------------------| 
----------------------------| 
--12-0-----3--------3--3----| 
--12-0-----3--------3--3----| 
--12-0-----3--------3--3----| 

                                                      
----------------------------------------------------| 
----------------------------------------------------| 
----------------------------------------------------| 
--8b----------8b----------8b----------0M-0M-12L-----| 
--8b----------8b----------8b----------0M-0M-12L-----| 
--8b----------8b----------8b----------0M-0M-12L-----| 

                                                                              
----------------------------------------------------|-------|-------|-------| 
----------------------------------------------------|-------|-------|-------| 
--------------------7-----------------7-----7L-7----|-------|-------|-------| 
--12----0-----------7-----------------7-----7L-7----|-------|-------|-------| 
--12----0-------------------------------------------|-------|-------|-------| 
--12----0-------------------------------------------|-------|-------|-------| 

                      =                                       
-------|----------------------------------------------------| 
-------|----------------------------------------------------| 
-------|--------------7-----------------------7-------------| 
-------|--0-----0-----x-----------------------x--0----------| 
-------|--0-----0-----5-----------------------5--0----------| 
-------|--0-----0--------------------------------0----------| 

                                                      
----------------------------------------------------| 
----------------------------------------------------| 
----------------------------------------------------| 
--3-----3-----3M-3M-3-----3-----3M-3M-3-----3M-3M---| 
--3-----3-----3M-3M-3-----3-----3M-3M-3-----3M-3M---| 
--3-----3-----3M-3M-3-----3-----3M-3M-3-----3M-3M---| 

              =                                       
----------------------------------------------------| 
----------------------------------------------------| 
--------------12----------------------12------------| 
--10----10----x-----------------------x--10---------| 
--10----10----10----------------------10-10---------| 
--10----10-------------------------------10---------| 

                                                      
----------------------------------------------------| 
----------------------------------------------------| 
----------------------------------------------------| 
--5-----5-----5M-5M-5-----5-----5M-5M-5-----5M-5M---| 
--5-----5-----5M-5M-5-----5-----5M-5M-5-----5M-5M---| 
--5-----5-----5M-5M-5-----5-----5M-5M-5-----5M-5M---| 

              =                                       
----------------------------------------------------| 
----------------------------------------------------| 
--------------7-----------------------7-------------| 
--0-----0-----x-----------------------x--0----------| 
--0-----0-----5-----------------------5--0----------| 
--0-----0--------------------------------0----------| 

                                                      
----------------------------------------------------| 
----------------------------------------------------| 
----------------------------------------------------| 
--3-----3-----3M-3M-3-----3-----3M-3M-3-----3M-3M---| 
--3-----3-----3M-3M-3-----3-----3M-3M-3-----3M-3M---| 
--3-----3-----3M-3M-3-----3-----3M-3M-3-----3M-3M---| 

              =                                       
----------------------------------------------------| 
----------------------------------------------------| 
--------------12----------------------12------------| 
--10----10----x-----------------------x--10---------| 
--10----10----10----------------------10-10---------| 
--10----10-------------------------------10---------| 

                                                      
----------------------------------------------------| 
----------------------------------------------------| 
----------------------------------------------------| 
--5-----5-----5M-5M-5-----5-----5M-5M-5-----5M-5M---| 
--5-----5-----5M-5M-5-----5-----5M-5M-5-----5M-5M---| 
--5-----5-----5M-5M-5-----5-----5M-5M-5-----5M-5M---| 

              =                                       
----------------------------------------------------| 
----------------------------------------------------| 
--------------7-----------------------7-------------| 
--0-----0-----x-----------------------x--0----------| 
--0-----0-----5-----------------------5--0----------| 
--0-----0--------------------------------0----------| 

                                                      
----------------------------------------------------| 
----------------------------------------------------| 
----------------------------------------------------| 
--3-----3-----3M-3M-3-----3-----3M-3M-3-----3M-3M---| 
--3-----3-----3M-3M-3-----3-----3M-3M-3-----3M-3M---| 
--3-----3-----3M-3M-3-----3-----3M-3M-3-----3M-3M---| 

              =                                       
----------------------------------------------------| 
----------------------------------------------------| 
--------------12----------------------12------------| 
--10----10----x-----------------------x--10---------| 
--10----10----10----------------------10-10---------| 
--10----10-------------------------------10---------| 

                                                      
----------------------------------------------------| 
----------------------------------------------------| 
----------------------------------------------------| 
--5-----5-----5M-5M-5-----5-----5M-5M-5-----5M-5M---| 
--5-----5-----5M-5M-5-----5-----5M-5M-5-----5M-5M---| 
--5-----5-----5M-5M-5-----5-----5M-5M-5-----5M-5M---| 

              =                                       
----------------------------------------------------| 
----------------------------------------------------| 
--------------7-----------------------7-------------| 
--0-----0-----x-----------------------x--0----------| 
--0-----0-----5-----------------------5--0----------| 
--0-----0--------------------------------0----------| 

                                                      
----------------------------------------------------| 
----------------------------------------------------| 
----------------------------------------------------| 
--3-----3-----3M-3M-3-----3-----3M-3M-3-----3M-3M---| 
--3-----3-----3M-3M-3-----3-----3M-3M-3-----3M-3M---| 
--3-----3-----3M-3M-3-----3-----3M-3M-3-----3M-3M---| 

              =                                       
----------------------------------------------------| 
----------------------------------------------------| 
--------------12----------------------12------------| 
--10----10----x-----------------------x--10---------| 
--10----10----10----------------------10-10---------| 
--10----10-------------------------------10---------| 

                                                       =       =       =      
----------------------------------------------------|-------|-------|-------| 
----------------------------------------------------|--8----|--8----|--3----| 
----------------------------------------------------|--7----|--7----|--3----| 
--5-----5-----5M-5M-5-----5-----5M-5M-5-----5M-5M---|--5----|--5----|--3----| 
--5-----5-----5M-5M-5-----5-----5M-5M-5-----5M-5M---|--5----|--5----|--1----| 
--5-----5-----5M-5M-5-----5-----5M-5M-5-----5M-5M---|--5----|--5----|--1----| 

  =       =       =       =       =       =       =       =       =       =      
-------|-------|-------|-------|-------|-------|-------|-------|-------|-------| 
--3----|--6----|--6----|--5----|--5----|--8----|--8----|--3----|--3----|--6----| 
--3----|--7----|--7----|--5----|--5----|--7----|--7----|--3----|--3----|--7----| 
--3----|--7----|--7----|--5----|--5----|--5----|--5----|--3----|--3----|--7----| 
--1----|--5----|--5----|--3----|--3----|--5----|--5----|--1----|--1----|--5----| 
--1----|--0----|--0----|-------|-------|--5----|--5----|--1----|--1----|--0----| 

  =       =       =                                      
-------|-------|-------|-------|-------|-------|-------| 
--6----|--5----|--5----|--8L---|--8L---|--8L---|--8----| 
--7----|--5----|--5----|--7L---|--7L---|--7L---|--7----| 
--7----|--5----|--5----|--5L---|--5L---|--5L---|--5----| 
--5----|--3----|--3----|--5L---|--5L---|--5L---|--5----| 
--0----|-------|-------|--5L---|--5L---|--5L---|--5----| 

              =                                       
----------------------------------------------------| 
----------------------------------------------------| 
--------------7-----------------------7-------------| 
--0-----0-----x-----------------------x--0----------| 
--0-----0-----5-----------------------5--0----------| 
--0-----0--------------------------------0----------| 

                                                      
----------------------------------------------------| 
----------------------------------------------------| 
----------------------------------------------------| 
--3-----3-----3M-3M-3-----3-----3M-3M-3-----3M-3M---| 
--3-----3-----3M-3M-3-----3-----3M-3M-3-----3M-3M---| 
--3-----3-----3M-3M-3-----3-----3M-3M-3-----3M-3M---| 

              =                                       
----------------------------------------------------| 
----------------------------------------------------| 
--------------12----------------------12------------| 
--10----10----x-----------------------x--10---------| 
--10----10----10----------------------10-10---------| 
--10----10-------------------------------10---------| 

                                                      
----------------------------------------------------| 
----------------------------------------------------| 
----------------------------------------------------| 
--5-----5-----5M-5M-5-----5-----5M-5M-5-----5M-5M---| 
--5-----5-----5M-5M-5-----5-----5M-5M-5-----5M-5M---| 
--5-----5-----5M-5M-5-----5-----5M-5M-5-----5M-5M---| 

              =                                       
----------------------------------------------------| 
----------------------------------------------------| 
--------------7-----------------------7-------------| 
--0-----0-----x-----------------------x--0----------| 
--0-----0-----5-----------------------5--0----------| 
--0-----0--------------------------------0----------| 

                                                      
----------------------------------------------------| 
----------------------------------------------------| 
----------------------------------------------------| 
--3-----3-----3M-3M-3-----3-----3M-3M-3-----3M-3M---| 
--3-----3-----3M-3M-3-----3-----3M-3M-3-----3M-3M---| 
--3-----3-----3M-3M-3-----3-----3M-3M-3-----3M-3M---| 

              =                                       
----------------------------------------------------| 
----------------------------------------------------| 
--------------12----------------------12------------| 
--10----10----x-----------------------x--10---------| 
--10----10----10----------------------10-10---------| 
--10----10-------------------------------10---------| 

                                                      
----------------------------------------------------| 
----------------------------------------------------| 
----------------------------------------------------| 
--5-----5-----5M-5M-5-----5-----5M-5M-5-----5M-5M---| 
--5-----5-----5M-5M-5-----5-----5M-5M-5-----5M-5M---| 
--5-----5-----5M-5M-5-----5-----5M-5M-5-----5M-5M---| 

              =                                       
----------------------------------------------------| 
----------------------------------------------------| 
--------------7-----------------------7-------------| 
--0-----0-----x-----------------------x--0----------| 
--0-----0-----5-----------------------5--0----------| 
--0-----0--------------------------------0----------| 

                                                      
----------------------------------------------------| 
----------------------------------------------------| 
----------------------------------------------------| 
--3-----3-----3M-3M-3-----3-----3M-3M-3-----3M-3M---| 
--3-----3-----3M-3M-3-----3-----3M-3M-3-----3M-3M---| 
--3-----3-----3M-3M-3-----3-----3M-3M-3-----3M-3M---| 

              =                                       
----------------------------------------------------| 
----------------------------------------------------| 
--------------12----------------------12------------| 
--10----10----x-----------------------x--10---------| 
--10----10----10----------------------10-10---------| 
--10----10-------------------------------10---------| 

                                                      
----------------------------------------------------| 
----------------------------------------------------| 
----------------------------------------------------| 
--5-----5-----5M-5M-5-----5-----5M-5M-5-----5M-5M---| 
--5-----5-----5M-5M-5-----5-----5M-5M-5-----5M-5M---| 
--5-----5-----5M-5M-5-----5-----5M-5M-5-----5M-5M---| 

              =                                       
----------------------------------------------------| 
----------------------------------------------------| 
--------------7-----------------------7-------------| 
--0-----0-----x-----------------------x--0----------| 
--0-----0-----5-----------------------5--0----------| 
--0-----0--------------------------------0----------| 

                                                      
----------------------------------------------------| 
----------------------------------------------------| 
----------------------------------------------------| 
--3-----3-----3M-3M-3-----3-----3M-3M-3-----3M-3M---| 
--3-----3-----3M-3M-3-----3-----3M-3M-3-----3M-3M---| 
--3-----3-----3M-3M-3-----3-----3M-3M-3-----3M-3M---| 

              = 
----------------------------------------------------| 
----------------------------------------------------| 
--------------12----------------------12------------| 
--10----10----x-----------------------x--10---------| 
--10----10----10----------------------10-10---------| 
--10----10-------------------------------10---------| 


----------------------------------------------------|-------|-------|-------| 
----------------------------------------------------|-------|-------|-------| 
----------------------------------------------------|-------|-------|-------| 
--5-----5-----5M-5M-5-----5-----5M-5M-5-----5M-5M---|-------|-------|-------| 
--5-----5-----5M-5M-5-----5-----5M-5M-5-----5M-5M---|-------|-------|-------| 
--5-----5-----5M-5M-5-----5-----5M-5M-5-----5M-5M---|-------|-------|-------| 


-------|----|----|| 
-------|----|----|| 
-------|----|----|| 
-------|----|----|| 
-------|----|----|| 
-------|----|----|| 




BASS 




F |-------|-------|-------|-------|-------|-------|-------|-------| 
C |-------|-------|-------|-------|-------|-------|-------|-------| 
G |-------|-------|-------|-------|-------|-------|-------|-------| 
C |-------|-------|-------|-------|-------|-------|-------|-------| 

              =                                       
----------------------------------------------------| 
----------------------------------------------------| 
--------------5-----------------------5-------------| 
--0-----0--------------------------------0----------| 

                                                      
----------------------------------------------------| 
----------------------------------------------------| 
----------------------------------------------------| 
--3-----3-----3--3--3-----3-----3--3--3-----3--3----| 

              =                                       
----------------------------------------------------| 
----------------------------------------------------| 
--------------10----------------------10------------| 
--10----10-------------------------------10---------| 

                                                      
----------------------------------------------------| 
----------------------------------------------------| 
----------------------------------------------------| 
--5-----5-----5--5--5-----5-----5--5--5-----5--5----| 

              =                                       
----------------------------------------------------| 
----------------------------------------------------| 
--------------5-----------------------5-------------| 
--0-----0--------------------------------0----------| 

                                                      
----------------------------------------------------| 
----------------------------------------------------| 
----------------------------------------------------| 
--3-----3-----3--3--3-----3-----3--3--3-----3--3----| 

              =                                       
----------------------------------------------------| 
----------------------------------------------------| 
--------------10----------------------10------------| 
--10----10-------------------------------10---------| 

                                                      
----------------------------------------------------| 
----------------------------------------------------| 
----------------------------------------------------| 
--5-----5-----5--5--5-----5-----5--5--5-----5--5----| 

                                                      
----------------------------------------------------| 
----------------------------------------------------| 
----------------------------------------------------| 
--0--------0--------0-----------12-------0----------| 

                                                      
----------------------------------------------------| 
----------------------------------------------------| 
--------------------------------5-------------------| 
--3--------3--------3--------------------3----------| 

                                                      
----------------------------------------------------| 
----------------------------------------------------| 
--------------------------------10------------------| 
--10-------10-------10-------------------10---------| 

                                                      
----------------------------------------------------| 
----------------------------------------------------| 
--------------------------------10------------------| 
--9--------9--------9--------------------9----------| 

                                                      
----------------------------------------------------| 
----------------------------------------------------| 
----------------------------------------------------| 
--0--------0--------0-----------12-------0----------| 

                                                      
----------------------------------------------------| 
----------------------------------------------------| 
--------------------------------5-------------------| 
--3--------3--------3--------------------3----------| 

                                                      
----------------------------------------------------| 
----------------------------------------------------| 
--------------------------------10------------------| 
--10-------10-------10-------------------10---------| 

                                                      
----------------------------------------------------| 
----------------------------------------------------| 
--------------------------------10------------------| 
--9--------9--------9--------------------9----------| 

                                                      
----------------------------------------------------| 
----------------------------------------------------| 
----------------------------------------------------| 
--8b----------8b----------8b----------0--0--12L-----| 

                              
----------------------------| 
----------------------------| 
----------------------------| 
--12-0-----3--------3--3----| 

                                                      
----------------------------------------------------| 
----------------------------------------------------| 
----------------------------------------------------| 
--8b----------8b----------8b----------0--0--12L-----| 

                              
----------------------------| 
----------------------------| 
----------------------------| 
--12-0----------------------| 

                                                      
----------------------------------------------------| 
----------------------------------------------------| 
----------------------------------------------------| 
--8b----------8b----------8b----------0--0--12L-----| 

                              
----------------------------| 
----------------------------| 
----------------------------| 
--12-0-----3--------3--3----| 

                                                      
----------------------------------------------------| 
----------------------------------------------------| 
----------------------------------------------------| 
--8b----------8b----------8b----------0--0--12L-----| 

                                                              
----------------------------|-------|-------|-------|-------| 
----------------------------|-------|-------|-------|-------| 
----------------------------|-------|-------|-------|-------| 
--12-0----------------------|-------|-------|-------|-------| 

              =                                       
----------------------------------------------------| 
----------------------------------------------------| 
--------------5-----------------------5-------------| 
--0-----0--------------------------------0----------| 

                                                      
----------------------------------------------------| 
----------------------------------------------------| 
----------------------------------------------------| 
--3-----3-----3--3--3-----3-----3--3--3-----3--3----| 

              =                                       
----------------------------------------------------| 
----------------------------------------------------| 
--------------10----------------------10------------| 
--10----10-------------------------------10---------| 

                                                      
----------------------------------------------------| 
----------------------------------------------------| 
----------------------------------------------------| 
--5-----5-----5--5--5-----5-----5--5--5-----5--5----| 

              =                                       
----------------------------------------------------| 
----------------------------------------------------| 
--------------5-----------------------5-------------| 
--0-----0--------------------------------0----------| 

                                                      
----------------------------------------------------| 
----------------------------------------------------| 
----------------------------------------------------| 
--3-----3-----3--3--3-----3-----3--3--3-----3--3----| 

              =                                       
----------------------------------------------------| 
----------------------------------------------------| 
--------------10----------------------10------------| 
--10----10-------------------------------10---------| 

                                                      
----------------------------------------------------| 
----------------------------------------------------| 
----------------------------------------------------| 
--5-----5-----5--5--5-----5-----5--5--5-----5--5----| 

                                                      
----------------------------------------------------| 
----------------------------------------------------| 
----------------------------------------------------| 
--0--------0--------0-----------12-------0----------| 

                                                      
----------------------------------------------------| 
----------------------------------------------------| 
--------------------------------5-------------------| 
--3--------3--------3--------------------3----------| 

                                                      
----------------------------------------------------| 
----------------------------------------------------| 
--------------------------------10------------------| 
--10-------10-------10-------------------10---------| 

                                                      
----------------------------------------------------| 
----------------------------------------------------| 
--------------------------------10------------------| 
--9--------9--------9--------------------9----------| 

                                                      
----------------------------------------------------| 
----------------------------------------------------| 
----------------------------------------------------| 
--0--------0--------0-----------12-------0----------| 

                                                      
----------------------------------------------------| 
----------------------------------------------------| 
--------------------------------5-------------------| 
--3--------3--------3--------------------3----------| 

                                                      
----------------------------------------------------| 
----------------------------------------------------| 
--------------------------------10------------------| 
--10-------10-------10-------------------10---------| 

                                                      
----------------------------------------------------| 
----------------------------------------------------| 
--------------------------------10------------------| 
--9--------9--------9--------------------9----------| 

                                                      
----------------------------------------------------| 
----------------------------------------------------| 
----------------------------------------------------| 
--8b----------8b----------8b----------0--0--12L-----| 

                              
----------------------------| 
----------------------------| 
----------------------------| 
--12-0-----3--------3--3----| 

                                                      
----------------------------------------------------| 
----------------------------------------------------| 
----------------------------------------------------| 
--8b----------8b----------8b----------0--0--12L-----| 

                              
----------------------------| 
----------------------------| 
----------------------------| 
--12-0----------------------| 

                                                      
----------------------------------------------------| 
----------------------------------------------------| 
----------------------------------------------------| 
--8b----------8b----------8b----------0--0--12L-----| 

                              
----------------------------| 
----------------------------| 
----------------------------| 
--12-0-----3--------3--3----| 

                                                      
----------------------------------------------------| 
----------------------------------------------------| 
----------------------------------------------------| 
--8b----------8b----------8b----------0--0--12L-----| 

                                                              
----------------------------|-------|-------|-------|-------| 
----------------------------|-------|-------|-------|-------| 
----------------------------|-------|-------|-------|-------| 
--12-0----------------------|-------|-------|-------|-------| 

              =                                       
----------------------------------------------------| 
----------------------------------------------------| 
--------------5-----------------------5-------------| 
--0-----0--------------------------------0----------| 

                                                      
----------------------------------------------------| 
----------------------------------------------------| 
----------------------------------------------------| 
--3-----3-----3--3--3-----3-----3--3--3-----3--3----| 

              =                                       
----------------------------------------------------| 
----------------------------------------------------| 
--------------10----------------------10------------| 
--10----10-------------------------------10---------| 

                                                      
----------------------------------------------------| 
----------------------------------------------------| 
----------------------------------------------------| 
--5-----5-----5--5--5-----5-----5--5--5-----5--5----| 

              =                                       
----------------------------------------------------| 
----------------------------------------------------| 
--------------5-----------------------5-------------| 
--0-----0--------------------------------0----------| 

                                                      
----------------------------------------------------| 
----------------------------------------------------| 
----------------------------------------------------| 
--3-----3-----3--3--3-----3-----3--3--3-----3--3----| 

              =                                       
----------------------------------------------------| 
----------------------------------------------------| 
--------------10----------------------10------------| 
--10----10-------------------------------10---------| 

                                                      
----------------------------------------------------| 
----------------------------------------------------| 
----------------------------------------------------| 
--5-----5-----5--5--5-----5-----5--5--5-----5--5----| 

              =                                       
----------------------------------------------------| 
----------------------------------------------------| 
--------------5-----------------------5-------------| 
--0-----0--------------------------------0----------| 

                                                      
----------------------------------------------------| 
----------------------------------------------------| 
----------------------------------------------------| 
--3-----3-----3--3--3-----3-----3--3--3-----3--3----| 

              =                                       
----------------------------------------------------| 
----------------------------------------------------| 
--------------10----------------------10------------| 
--10----10-------------------------------10---------| 

                                                      
----------------------------------------------------| 
----------------------------------------------------| 
----------------------------------------------------| 
--5-----5-----5--5--5-----5-----5--5--5-----5--5----| 

              =                                       
----------------------------------------------------| 
----------------------------------------------------| 
--------------5-----------------------5-------------| 
--0-----0--------------------------------0----------| 

                                                      
----------------------------------------------------| 
----------------------------------------------------| 
----------------------------------------------------| 
--3-----3-----3--3--3-----3-----3--3--3-----3--3----| 

              =                                       
----------------------------------------------------| 
----------------------------------------------------| 
--------------10----------------------10------------| 
--10----10-------------------------------10---------| 

                                                                              
----------------------------------------------------|-------|-------|-------| 
----------------------------------------------------|-------|-------|-------| 
----------------------------------------------------|-------|-------|-------| 
--5-----5-----5--5--5-----5-----5--5--5-----5--5----|-------|-------|-------| 

                                                                                 
-------|-------|-------|-------|-------|-------|-------|-------|-------|-------| 
-------|-------|-------|-------|-------|-------|-------|-------|-------|-------| 
-------|-------|-------|-------|-------|-------|-------|-------|-------|-------| 
-------|-------|-------|-------|-------|-------|-------|-------|-------|-------| 

                                                         
-------|-------|-------|-------|-------|-------|-------| 
-------|-------|-------|-------|-------|-------|-------| 
-------|-------|-------|-------|-------|-------|-------| 
-------|-------|-------|-------|-------|-------|-------| 

              =                                       
----------------------------------------------------| 
----------------------------------------------------| 
--------------5-----------------------5-------------| 
--0-----0--------------------------------0----------| 

                                                      
----------------------------------------------------| 
----------------------------------------------------| 
----------------------------------------------------| 
--3-----3-----3--3--3-----3-----3--3--3-----3--3----| 

              =                                       
----------------------------------------------------| 
----------------------------------------------------| 
--------------10----------------------10------------| 
--10----10-------------------------------10---------| 

                                                      
----------------------------------------------------| 
----------------------------------------------------| 
----------------------------------------------------| 
--5-----5-----5--5--5-----5-----5--5--5-----5--5----| 

              =                                       
----------------------------------------------------| 
----------------------------------------------------| 
--------------5-----------------------5-------------| 
--0-----0--------------------------------0----------| 

                                                      
----------------------------------------------------| 
----------------------------------------------------| 
----------------------------------------------------| 
--3-----3-----3--3--3-----3-----3--3--3-----3--3----| 

              =                                       
----------------------------------------------------| 
----------------------------------------------------| 
--------------10----------------------10------------| 
--10----10-------------------------------10---------| 

                                                      
----------------------------------------------------| 
----------------------------------------------------| 
----------------------------------------------------| 
--5-----5-----5--5--5-----5-----5--5--5-----5--5----| 

              =                                       
----------------------------------------------------| 
----------------------------------------------------| 
--------------5-----------------------5-------------| 
--0-----0--------------------------------0----------| 

                                                      
----------------------------------------------------| 
----------------------------------------------------| 
----------------------------------------------------| 
--3-----3-----3--3--3-----3-----3--3--3-----3--3----| 

              =                                       
----------------------------------------------------| 
----------------------------------------------------| 
--------------10----------------------10------------| 
--10----10-------------------------------10---------| 

                                                      
----------------------------------------------------| 
----------------------------------------------------| 
----------------------------------------------------| 
--5-----5-----5--5--5-----5-----5--5--5-----5--5----| 

              =                                       
----------------------------------------------------| 
----------------------------------------------------| 
--------------5-----------------------5-------------| 
--0-----0--------------------------------0----------| 

                                                      
----------------------------------------------------| 
----------------------------------------------------| 
----------------------------------------------------| 
--3-----3-----3--3--3-----3-----3--3--3-----3--3----| 

              = 
----------------------------------------------------| 
----------------------------------------------------| 
--------------10----------------------10------------| 
--10----10-------------------------------10---------| 


----------------------------------------------------|-------|-------|-------| 
----------------------------------------------------|-------|-------|-------| 
----------------------------------------------------|-------|-------|-------| 
--5-----5-----5--5--5-----5-----5--5--5-----5--5----|-------|-------|-------| 


-------|----|----|| 
-------|----|----|| 
-------|----|----|| 
-------|----|----|| 
		  

See also:

tabs Deep Purple - Demonds Eye tabs Deep Purple - Money Talks tabs Ira! - Eu Quero Sempre Mais (Com Pitty, intro) tabs Albert Hammond Jr - Holiday tabs Deep Purple - Smoke on the water (intro) tabs Deep Purple - Smoke on the Water (ver. 2)
e-chords

Other versions:

tabs Beartooth - One More tabs I Mother Earth - One More Astronaut tabs The Living End - One More Cell tabs Madonna - One More Chance tabs Madonna - One more chance (ver. 2) tabs Sleater-Kinney - One More Hour
auto scroll beats size up size down change color hide chords drawings
tab show chords e-chords YouTube Clip e-chords hide all tabs e-chords go to top tab

share