Beartooth

Give It Up

Beartooth

tabs

by  TAMAMOREIRA

save to print version add songbook text version e-mail correct tuner
chordsukulelecavacokeyboardtabbassdrumsharmonicaflute Guitar Pro
close

there isn't a video lesson for this song

chords

Give It Up

	  		
Intro 

D|---------------| 
A|---------------| 
F|8-8-8b-8-8-8-8-| 
C|7-7-7b-7-7-7-7-|x4 
G|6-6-6b-6-6-6-6-| 
C|---------------| 

D|----------------| 
A|----------------| 
F|----------------| 
C|-7-7-7b-7-7-7-7-| 
G|-7-7-7b-7-7-7-7-|x4 
C|-7-7-7b-7-7-7-7-| 


Verse 

D|------------------------------| 
A|------------------------------| 
F|------------------------------| 
C|-7-6-5-7-6-5-7--7-3-0-7-3-0-3-| 
G|-7-6-5-7-6-5-7--7-3-0-7-3-0-3-| 
C|-7-6-5-7-6-5-7--7-3-0-7-3-0-3-| 

D|----------------------------------------------------------------------------| 
A|----------------------------------------------------------------------------| 
F|----------------------------------------------------------------------------| 
C|-7-7-7-7-7-7-7-7--1-0-1-0-1-0-1-0-1-0-1-0-1-0-1-0--5-5-5-5-5-5-5-5--5-6-7-6-| 
G|-7-7-7-7-7-7-7-7--1-0-1-0-1-0-1-0-1-0-1-0-1-0-1-0--5-5-5-5-5-5-5-5--5-6-7-6-| 
C|-7-7-7-7-7-7-7-7--1-0-1-0-1-0-1-0-1-0-1-0-1-0-1-0--5-5-5-5-5-5-5-5--5-6-7-6-| 

D|-------------------------------------------------------------------| 
A|-------------------------------------------------------------------| 
F|-------------------------------------------------------------------| 
C|-7-7-7-7-7-7-7-7--1-0-1-0-1-0-1-0-1-0-1-0-1-0-1-0--0-0-0-0-0-0-0-0-| 
G|-7-7-7-7-7-7-7-7--1-0-1-0-1-0-1-0-1-0-1-0-1-0-1-0--0-0-0-0-0-0-0-0-| 
C|-7-7-7-7-7-7-7-7--1-0-1-0-1-0-1-0-1-0-1-0-1-0-1-0--0-0-0-0-0-0-0-0-| 

D|----------------------------------------------------------------------------| 
A|----------------------------------------------------------------------------| 
F|----------------------------------------------------------------------------| 
C|-7-7-7-7-7-7-7-7--1-0-1-0-1-0-1-0-1-0-1-0-1-0-1-0--5-5-5-5-5-5-5-5--5-6-7-6-| 
G|-7-7-7-7-7-7-7-7--1-0-1-0-1-0-1-0-1-0-1-0-1-0-1-0--5-5-5-5-5-5-5-5--5-6-7-6-| 
C|-7-7-7-7-7-7-7-7--1-0-1-0-1-0-1-0-1-0-1-0-1-0-1-0--5-5-5-5-5-5-5-5--5-6-7-6-| 

D|-------------------------------------------------------------------| 
A|-------------------------------------------------------------------| 
F|-------------------------------------------------------------------| 
C|-7-7-7-7-7-7-7-7--1-0-1-0-1-0-1-0-1-0-1-0-1-0-1-0--0-0-0-0-0-0-0-0-| 
G|-7-7-7-7-7-7-7-7--1-0-1-0-1-0-1-0-1-0-1-0-1-0-1-0--0-0-0-0-0-0-0-0-| 
C|-7-7-7-7-7-7-7-7--1-0-1-0-1-0-1-0-1-0-1-0-1-0-1-0--0-0-0-0-0-0-0-0-| 

D|--------| 
A|--------| 
F|--------| 
C|7-------| 
G|7-x-6-5-| 
C|7-------| 


Verse 

D|------------------------------------------------------------------| 
A|------------------------------------------------------------------| 
F|------------------------------------------------------------------| 
C|7-7-7-7-7-7-7-7--1-0-1-0-1-0-1-0-1-0-1-0-1-0-1-0------------------| 
G|7-7-7-7-7-7-7-7--1-0-1-0-1-0-1-0-1-0-1-0-1-0-1-0------------------|\ 
C|7-7-7-7-7-7-7-7--1-0-1-0-1-0-1-0-1-0-1-0-1-0-1-0------------------| \ 
                                                                       x2 
D|------------------------------------------------------------------| / 
A|------------------------------------------------------------------|/ 
F|------------------------------------------------------------------| 
C|-1-5-1-5-1-5-1-5-1-5-1-5-1-5-1-5--1-2-1-2-1-2-1-2-1-2-1-2-1-2-1-2-| 
G|-1-5-1-5-1-5-1-5-1-5-1-5-1-5-1-5--1-2-1-2-1-2-1-2-1-2-1-2-1-2-1-2-| 
C|-1-5-1-5-1-5-1-5-1-5-1-5-1-5-1-5--1-2-1-2-1-2-1-2-1-2-1-2-1-2-1-2-| 

D|---------------| 
A|---------------| 
F|---------------| 
C|7-7-7b-7-7-7-7-| 
G|7-7-7b-7-7-7-7-|x3 
C|7-7-7b-7-7-7-7-| 

D|--------------------| 
A|--------------------| 
F|--------------------| 
C|-7-7-7b-7-6-5-7-6-5-| 
G|-7-7-7b-7-6-5-7-6-5-| 
C|-7-7-7b-7-6-5-7-6-5-| 

D|----------------| 
A|----------------| 
F|----------------| 
C|-7-7-7b-7-7-7-7-| 
G|-7-7-7b-7-7-7-7-|x4 
C|-7-7-7b-7-7-7-7-| 

D|-------------------------------------| 
A|-------------------------------------| 
F|-------------------------------------| 
C|-7-6-5-7-6-5-7---7-3-0-7-3-0-3-7-3-0-| 
G|-7-6-5-7-6-5-7---7-3-0-7-3-0-3-7-3-0-| 
C|-7-6-5-7-6-5-7---7-3-0-7-3-0-3-7-3-0-| 

D|----------------------------------------------------------------------------| 
A|----------------------------------------------------------------------------| 
F|----------------------------------------------------------------------------| 
C|-7-7-7-7-7-7-7-7--1-0-1-0-1-0-1-0-1-0-1-0-1-0-1-0--5-5-5-5-5-5-5-5--5-6-7-6-| 
G|-7-7-7-7-7-7-7-7--1-0-1-0-1-0-1-0-1-0-1-0-1-0-1-0--5-5-5-5-5-5-5-5--5-6-7-6-| 
C|-7-7-7-7-7-7-7-7--1-0-1-0-1-0-1-0-1-0-1-0-1-0-1-0--5-5-5-5-5-5-5-5--5-6-7-6-| 

D|--------------------------------------------------------------------| 
A|--------------------------------------------------------------------| 
F|--------------------------------------------------------------------| 
C|-7-7-7-7-7-7-7-7--1-0-1-0-1-0-1-0-1-0-1-0-1-0-1-0--0-0-0-0-0-0-0-0--| 
G|-7-7-7-7-7-7-7-7--1-0-1-0-1-0-1-0-1-0-1-0-1-0-1-0--0-0-0-0-0-0-0-0--| 
C|-7-7-7-7-7-7-7-7--1-0-1-0-1-0-1-0-1-0-1-0-1-0-1-0--0-0-0-0-0-0-0-0--| 

D|---------------------------------------------------------------------------------| 
A|---------------------------------------------------------------------------------| 
F|---------------------------------------------------------------------------------| 
C|7--------------------------------------------------------------------------------| 
G|7-x-6-5--------------------------------------------------------------------------| 
C|7--------------------------------------------------------------------------------| 

D|---------------------------------------------------------------------------| 
A|---------------------------------------------------------------------------| 
F|---------------------------------------------------------------------------| 
C|-7-7-7-7-7-7-7-7--1-0-1-0-1-0-1-0-1-0-1-0-1-0-1-0--------------------------| 
G|-7-7-7-7-7-7-7-7--1-0-1-0-1-0-1-0-1-0-1-0-1-0-1-0--------------------------|\ 
C|-7-7-7-7-7-7-7-7--1-0-1-0-1-0-1-0-1-0-1-0-1-0-1-0--------------------------| \ 
                                                                                x2 
D|---------------------------------------------------------------------------| / 
A|---------------------------------------------------------------------------|/ 
F|---------------------------------------------------------------------------| 
C|-1-5-1-5-1-5-1-5-1-5-1-5-1-5-1-5--1-2-1-2-1-2-1-2-1-2-1-2-1-2-1-2----------| 
G|-1-5-1-5-1-5-1-5-1-5-1-5-1-5-1-5--1-2-1-2-1-2-1-2-1-2-1-2-1-2-1-2----------| 
C|-1-5-1-5-1-5-1-5-1-5-1-5-1-5-1-5--1-2-1-2-1-2-1-2-1-2-1-2-1-2-1-2----------| 

D|-----------------| 
A|-----------------| 
F|-----------------| 
C|0-0-0-0-0-0-0-1--| 
G|0-0-0-0-0-0-0-1--|x4 
C|0-0-0-0-0-0-0-1--| 

D|------------------------------------------------------------------| 
A|------------------------------------------------------------------| 
F|------------------------------------------------------------------| 
C|7-7-7-7-7-7-7-7--1-0-1-0-1-0-1-0-1-0-1-0-1-0-1-0------------------| 
G|7-7-7-7-7-7-7-7--1-0-1-0-1-0-1-0-1-0-1-0-1-0-1-0------------------|\ 
C|7-7-7-7-7-7-7-7--1-0-1-0-1-0-1-0-1-0-1-0-1-0-1-0------------------| \ 
                                                                      x2 
D|------------------------------------------------------------------| / 
A|------------------------------------------------------------------|/ 
F|------------------------------------------------------------------| 
C|-1-5-1-5-1-5-1-5-1-5-1-5-1-5-1-5--1-2-1-2-1-2-1-2-1-2-1-2-1-2-1-2-| 
G|-1-5-1-5-1-5-1-5-1-5-1-5-1-5-1-5--1-2-1-2-1-2-1-2-1-2-1-2-1-2-1-2-| 
C|-1-5-1-5-1-5-1-5-1-5-1-5-1-5-1-5--1-2-1-2-1-2-1-2-1-2-1-2-1-2-1-2-| 

D|---| 
A|---| 
F|---| 
C|-7-| 
G|-7-| 
C|-7-| 

************************* 
b - Bend 
x - Dead note 
************************* 
		  

See also:

tabs Ira! - Poço de Sensibilidade (Solo - Acustico Mtv) tabs Deep Purple - Smoke On The Water tabs Deep Purple - Smoke on the water (intro) tabs Ira! - Eu Quero Sempre Mais (Com Pitty, intro) tabs Deep Purple - Smoke on the Water (ver. 2) tabs Deep Purple - Knocking At Your Back Door
e-chords

Other versions:

tabs AC/DC - Give It Up tabs Home Grown - Give It Up tabs I Fight Dragons - Give It Up tabs Pepper - Give It Up tabs Beartooth - Give It Up
auto scroll beats size up size down change color hide chords drawings
tab show chords e-chords YouTube Clip e-chords hide all tabs e-chords go to top tab

share