Beartooth

Enemy

Beartooth

tabs

by  GUSTSILVA

save to print version add songbook text version e-mail correct tuner
chordsukulelecavacokeyboardtabbassdrumsharmonicaflute Guitar Pro
close

there isn't a video lesson for this song

chords

Enemy

	  		
Intro 

   with flanger and echo 
D|---------------------------------|---------------------------------| 
A|---------------------------------|---------------------------------| 
F|---------------------------------|---------------------------------| 
C|---------------------------------|-------------------------4-4-4-4-| play 2x 
G|---------------------------------|---------------------------------| 
C|-5-4-5-4-0-4-5-4-5-4-4-4---------|-5-4-5-4-0-4-5-4-5-4-4-4---------| 


Pre-Verse 

   Rhythm part 
D|---------------------------------|-------------------------------------| 
A|---------------------------------|-------------------------------------| 
F|---------------------------------|-------------------------------------| 
C|---------------------------------|-------------------------*4-*4-*4-*4-| play 4x 
G|-5p4-5p4-0h4-5p4-5p4-4-4---------|-5p4-5p4-0h4-5p4-5p4-4-4-------------| 
C|-5p4-5p4-0h4-5p4-5p4-4-4---------|-5p4-5p4-0h4-5p4-5p4-4-4-------------| 



   Guitar 2 
D|---------------------------------|-------------------------------------| 
A|---------------------------------|-------------------------11-11-11-11-| 
F|-11~---11~---11~---11~---11~-----|-11~---11~---11~---11~---------------| add this part to rhythm 2x  
C|---------------------------------|-------------------------------------| on 3rd and 4th repeat  
G|---------------------------------|-------------------------------------| 
C|---------------------------------|-------------------------------------| 



Verse 

D|---------------------------------|-------------------------------------| 
A|---------------------------------|-------------------------------------| 
F|---------------------------------|-------------------------------------| 
C|---------------------------------|-------------------------------------| 
G|-0-4-4---4-4-4-4-5-4-4-----------|-0-4-4---11\10-10-9--9-8--8-7--------| 
C|-0-4-4---4-4-4-4-5-4-4-----------|-0-4-4---11\10-10-9--9-8--8-7--------| 
           PM_____ 

D|---------------------------------|-------------------------------------| 
A|---------------------------------|-------------------------------------| 
F|---------------------------------|-------------------9-----------------| 
C|---------------------------------|-------------------9---x-------------| 
G|-0-4-4---4-4-4-4-5-4-4-----------|-0-4-4---11\10-10--7---x-9---x-5-----| 
C|-0-4-4---4-4-4-4-5-4-4-----------|-0-4-4---11\10-10--------9---x-5-----| 
           PM_____ 
  
D|---------------------------------|-------------------------------------| 
A|---------------------------------|-------------------------------------| 
F|---------------------------------|-------------------------------------| 
C|---------------------------------|-------------------------------------| 
G|-0-4-4---4-4-4-4-5-4-4-----------|-0-4-4---11\10-10-9--9-8--8-7--------| 
C|-0-4-4---4-4-4-4-5-4-4-----------|-0-4-4---11\10-10-9--9-8--8-7--------| 
           PM_____ 

D|---------------------------------|-------------------------------------| 
A|---------------------------------|-------------------------------------| 
F|---------------------------------|-------------------9-----------------| 
C|---------------------------------|-------------------9---x-------------| 
G|-0-4-4-----------5-4-4-----------|-0-4-4---11\10-10--7---x-9---x-5-----| PM part is  
C|-0-4-4---444-444-5-4-4-----------|-0-4-4---11\10-10--------9---x-5-----| triplets 
           PM_____ 
  


PreChorus 

D|-------9-------9-------------------------------|-------9-------9-------11----------------------| 
A|-----------------------10-------10-------10----|--------------------------------12-------12----| 
F|-9/11----11-11---11-11----11-11----11-11----11-|-9/11----11-11---11-11----11-11----11-11----11-| 
C|-----------------------------------------------|-----------------------------------------------| 
G|-----------------------------------------------|-----------------------------------------------| 
C|-----------------------------------------------|-----------------------------------------------| 
   play 2x 


Chorus 

D|-----------------------------------------|-----------------------------------------| 
A|-----------------------------------------|-----------------------------------------| 
F|-----------------------------------------|-----------------------------------------| play 4x 
C|-4----4----4----4--0------0----0----0----|-7----7----7----7--2------2----4----4----| 
G|-4----4----4----4--0------0----0----0----|-7----7----7----7--2------2----2----2----| 
C|-4----4----4----4--0------0----0----0----|-7----7----7----7--2------2--------------| 
 | 
 | Guitar 2 
D|-----------0-------------------0---------|-----------0-------------------0---------| 
A|------10------------------10-------------|------10------------------10-------------| 
F|-11------------------11------------------|-11------------------11------------------| 
C|-----------------------------------------|-----------------------------------------| 
G|-----------------------------------------|-----------------------------------------| 
C|-----------------------------------------|-----------------------------------------| 



Preverse 2 

    Rhythm part 
D|---------------------------------|-------------------------------------| 
A|---------------------------------|-------------------------------------| 
F|---------------------------------|-------------------------------------| 
C|---------------------------------|-------------------------*4-*4-*4-*4-| play 2x 
G|-5p4-5p4-0h4-5p4-5p4-4-4---------|-5p4-5p4-0h4-5p4-5p4-4-4-------------| 
C|-5p4-5p4-0h4-5p4-5p4-4-4---------|-5p4-5p4-0h4-5p4-5p4-4-4-------------| 
 | 
 | Guitar 2 
D|---------------------------------|-------------------------------------| 
A|---------------------------------|-------------------------11-11-11-11-| 
F|-11~---11~---11~---11~---11~-----|-11~---11~---11~---11~---------------| 
C|---------------------------------|-------------------------------------| 
G|---------------------------------|-------------------------------------| 
C|---------------------------------|-------------------------------------| 



verse 2 

D|---------------------------------|-------------------------------------| 
A|---------------------------------|-------------------------------------| 
F|---------------------------------|-------------------------------------| 
C|---------------------------------|-------------------------------------| 
G|-0-4-4---4-4-4-4-5-4-4-----------|-0-4-4---11\10-10-9--9-8--8-7--------| 
C|-0-4-4---4-4-4-4-5-4-4-----------|-0-4-4---11\10-10-9--9-8--8-7--------| 
           PM_____ 

D|---------------------------------|-------------------------------------| 
A|---------------------------------|-------------------------------------| 
F|---------------------------------|-------------------9-----------------| 
C|---------------------------------|-------------------9---x-------------| 
G|-0-4-4---4-4-4-4-5-4-4-----------|-0-4-4---11\10-10--7---x-9---x-5-----| 
C|-0-4-4---4-4-4-4-5-4-4-----------|-0-4-4---11\10-10--------9---x-5-----| 
           PM_____ 
  
D|---------------------------------|-------------------------------------| 
A|---------------------------------|-------------------------------------| 
F|---------------------------------|-------------------------------------| 
C|---------------------------------|-------------------------------------| 
G|-0-4-4---4-4-4-4-5-4-4-----------|-0-4-4---11\10-10-9--9-8--8-7--------| 
C|-0-4-4---4-4-4-4-5-4-4-----------|-0-4-4---11\10-10-9--9-8--8-7--------| 
           PM_____ 

D|---------------------------------|-------------------------------------| 
A|---------------------------------|-------------------------------------| 
F|---------------------------------|-------------------9-----------------| 
C|---------------------------------|-------------------9---x-------------| 
G|-0-4-4-----------5-4-4-----------|-0-4-4---11\10-10--7---x-9---x-5-----| PM part is  
C|-0-4-4---444-444-5-4-4-----------|-0-4-4---11\10-10--------9---x-5-----| triplets 
           PM_____ 
  


PreChorus 2 

D|-------9-------9-------------------------------|-------9-------9-------11----------------------| 
A|-----------------------10-------10-------10----|--------------------------------12-------12----| 
F|-9/11----11-11---11-11----11-11----11-11----11-|-9/11----11-11---11-11----11-11----11-11----11-| 
C|-----------------------------------------------|-----------------------------------------------| 
G|-----------------------------------------------|-----------------------------------------------| 
C|-----------------------------------------------|-----------------------------------------------| 
   play 2x 


Chorus 2 

D|-----------------------------------------|-----------------------------------------| 
A|-----------------------------------------|-----------------------------------------| 
F|-----------------------------------------|-----------------------------------------| play 4x 
C|-4----4----4----4--0------0----0----0----|-7----7----7----7--2------2----4----4----| 
G|-4----4----4----4--0------0----0----0----|-7----7----7----7--2------2----2----2----| 
C|-4----4----4----4--0------0----0----0----|-7----7----7----7--2------2--------------| 
 | 
 | Guitar 2 
D|-----------0-------------------0---------|-----------0-------------------0---------| 
A|------10------------------10-------------|------10------------------10-------------| 
F|-11------------------11------------------|-11------------------11------------------| 
C|-----------------------------------------|-----------------------------------------| 
G|-----------------------------------------|-----------------------------------------| 
C|-----------------------------------------|-----------------------------------------| 


Bridge Pt1 

D|-------------------------|-------------------------|-------------------------| 
A|-------------------------|-------------------------|-------------------------| 
F|-------6-----------------|-------------------------|-------6-----------------| 
C|-------4-----------------|-4--------4-----4--5--4--|-------4-----------------| 
G|-2--4--4--4--4--4--4--4--|-4--4--4--4--4--4--5--4--|-2--4--4--4--4--4--4--4--|  rest 
C|-2--4--4--4--4--4--4--4--|-4--4--4--4--4--4--5--4--|-2--4--4--4--4--4--4--4--|  4 beats 
               PM________       PM__     PM                        PM________ 


Bridge Pt2 

D|-------------------------|-------------------------| 
A|-------------------------|-------------------------| 
F|-------6-----7-6~-----6--|-5~----5-4PH~------------| 
C|-------4-----------------|----------------------4--| 
G|-2--4--4--4--------4-----|----4-----------5--7-----| 
C|-2--4--4--4--------4-----|----4--------------------| 
                                            PM 

D|-------------------------|-------------------------| 
A|-------------------------|-------------------------| 
F|-------6-----7-6~-----6--|-5~----5-4PH~------------| 
C|-------4-----------------|-------------------------| 
G|-2--4--4--4--------4-----|----4-----------0--0--0--| 
C|-2--4--4--4--------4-----|----4-----------0--0--0--| 
                                            PM_____ 


Final PreChorus 

   All PM notes 
D|---------------------------------|---------------------------------| 
A|---------------------------------|---------------------------------| 
F|---------------------------------|---------------------------------| 
C|---------------------------------|---------------------------------| 
G|---------------------------------|-------------------------2-2-2-2-| 
C|-4-4-4-4-4-4-4-4-0-0-0-0-0-0-0-0-|-7-7-7-7-7-7-7-7-2-2-2-2---------| 

D|---------------------------------|---------------------------------| 
A|---------------------------------|---------------------------------| 
F|---------------------------------|---------------------------------| 
C|---------------------------------|-------------------------4-4-4-4-| 
G|---------------------------------|-7-7-7-7-7-7-----2-2-2-2-2-2-2-2-| 
C|-4-4-4-4-4-4-4-4-0-0-0-0-0-0-0-0-|-7-7-7-7-7-7-----2-2-2-2---------| 

D|-----------------------------------------|-----------------------------------------| 
A|-----------------------------------------|-----------------------------------------| 
F|-----------------------------------------|-----------------------------------------| play 2x 
C|-4----4----4----4--0------0----0----0----|-7----7----7----7--2------2----4----4----| 
G|-4----4----4----4--0------0----0----0----|-7----7----7----7--2------2----2----2----| 
C|-4----4----4----4--0------0----0----0----|-7----7----7----7--2------2--------------| 
 | 
 | Guitar 2 
D|-----------0-------------------0---------|-----------0-------------------0---------| 
A|------10------------------10-------------|------10------------------10-------------| 
F|-11------------------11------------------|-11------------------11------------------| 
C|-----------------------------------------|-----------------------------------------| 
G|-----------------------------------------|-----------------------------------------| 
C|-----------------------------------------|-----------------------------------------| 



Ending 

    Rhythm part 
D|---------------------------------|-------------------------------------| 
A|---------------------------------|-------------------------------------| 
F|---------------------------------|-------------------------------------| 
C|---------------------------------|-------------------------*4-*4-*4-*4-| play 2x 
G|-5p4-5p4-0h4-5p4-5p4-4-4---------|-5p4-5p4-0h4-5p4-5p4-4-4-------------| 
C|-5p4-5p4-0h4-5p4-5p4-4-4---------|-5p4-5p4-0h4-5p4-5p4-4-4-------------| 
 | 
 | Guitar 2 
D|---------------------------------|-------------------------------------| 
A|---------------------------------|-------------------------11-11-11-11-| 
F|-11~---11~---11~---11~---11~-----|-11~---11~---11~---11~---------------| 
C|---------------------------------|-------------------------------------| 
G|---------------------------------|-------------------------------------| 
C|---------------------------------|-------------------------------------| 


************************************ 

| x   Dead note 
| g   Grace note 
| (n) Ghost note 
| h   Hammer-on 
| p   Pull-off 
| r   Release 
| >   Accented note 
| t   Tapping 
| b   Bend 
| br  Bend release 
| pb  Pre-bend 
| pbr Pre-bend release 
| /   Slide up 
| \   Slide down 
| ~   Vibrato 
| s   Slap 
| P   Pop 
| PM  Palm mute 
| TR  Trill 
| *   Natural Harmonic 

************************************ 
		  

See also:

tabs Ira! - Poço de Sensibilidade (Solo - Acustico Mtv) tabs Deep Purple - Smoke On The Water tabs Deep Purple - Smoke on the water (intro) tabs Ira! - Eu Quero Sempre Mais (Com Pitty, intro) tabs Deep Purple - Smoke on the Water (ver. 2) tabs Deep Purple - Knocking At Your Back Door
e-chords

Other versions:

tabs Sevendust - Enemy tabs Jack Johnson - Enemy tabs Skip The Use - Enemy tabs Balance And Composure - Enemy tabs Blue Stahli - Enemy tabs Beartooth - Enemy
auto scroll beats size up size down change color hide chords drawings
tab show chords e-chords YouTube Clip e-chords hide all tabs e-chords go to top tab

share