Beartooth

Clever

Beartooth

bass

by  ANDRSOUZA

save to print version add songbook text version e-mail correct tuner
chordsukulelecavacokeyboardtabbassdrumsharmonicaflute Guitar Pro
close

there isn't a video lesson for this song

chords

Clever

	  		Intro 

Rest 4 Bars 

G|-----------------------------------------------------------------| 
D|-----------------------------------------------------------------| 
A|-----------------------------------------------------------------| 
D|-3-3---3-3-3---3---3-3---3-3-r-3---3---3-3-3---3---3-3---3-5-r-7-| 
   1 e + a 2 e + a 3 e + a 4 e + a 1 e + a 2 e + a 3 e + a 4 e + a 

G|-----------------------------------------------------------------| 
D|-----------------------------------------------------------------| 
A|-----------------------------------------------------------------| 
D|---7---7-7-7---7---7-7---7-7-r-5---5---5-5-5---5---5-5---r-------| 
   1 e + a 2 e + a 3 e + a 4 e + a 1 e + a 2 e + a 3 e + a 4 e + a 

Verse 

Rest 8 Bars 

Chorus 

G|-----------------------------------------------------------------| 
D|-----------------------------------------------------------------| 
A|-----------------------------------------------------------------| 
D|-3-3---3-3-3---3---3-3---3-3-r-3---3---3-3-3---3---3-3---3-5-r-7-| 
   1 e + a 2 e + a 3 e + a 4 e + a 1 e + a 2 e + a 3 e + a 4 e + a 

G|-----------------------------------------------------------------| 
D|-----------------------------------------------------------------| 
A|-----------------------------------------------------------------| 
D|---7---7-7-7---7---7-7---7-7-r-7---7---7-7-7---7---7-7---7-7-r-0-| 
   1 e + a 2 e + a 3 e + a 4 e + a 1 e + a 2 e + a 3 e + a 4 e + a 

G|-----------------------------------------------------------------| 
D|-----------------------------------------------------------------| 
A|---5---5-------5-------------------------------------------------| 
D|---------0-0-------0-0---0-0-r-3---3---3-3-3---3---3-3---3-3-r-7-| 
   1 e + a 2 e + a 3 e + a 4 e + a 1 e + a 2 e + a 3 e + a 4 e + a 

G|-----------------------------------------------------------------| 
D|-----------------------------------------------------------------| 
A|-----------------------------------------------------------------| 
D|---7---7-7-7---7---7-7---7-7-r-5---5---5-5-5---5-5-5-5-5-5-5-5-5-| 
   1 e + a 2 e + a 3 e + a 4 e + a 1 e + a 2 e + a 3 e + a 4 e + a 

Rest 2 Bars 

Verse 

Rest 8 Bars 

Chorus 

G|-----------------------------------------------------------------| 
D|-----------------------------------------------------------------| 
A|-----------------------------------------------------------------| 
D|-3-3---3-3-3---3---3-3---3-3-r-3---3---3-3-3---3---3-3---3-5-r-7-| 
   1 e + a 2 e + a 3 e + a 4 e + a 1 e + a 2 e + a 3 e + a 4 e + a 

G|-----------------------------------------------------------------| 
D|-----------------------------------------------------------------| 
A|-----------------------------------------------------------------| 
D|---7---7-7-7---7---7-7---7-7-r-7---7---7-7-7---7---7-7---7-7-r-0-| 
   1 e + a 2 e + a 3 e + a 4 e + a 1 e + a 2 e + a 3 e + a 4 e + a 

G|-----------------------------------------------------------------| 
D|-----------------------------------------------------------------| 
A|---5---5-------5-------------------------------------------------| 
D|---------0-0-------0-0---0-0-r-3---3---3-3-3---3---3-3---3-3-r-7-| 
   1 e + a 2 e + a 3 e + a 4 e + a 1 e + a 2 e + a 3 e + a 4 e + a 

G|-----------------------------------------------------------------| 
D|-----------------------------------------------------------------| 
A|-----------------------------------------------------------------| 
D|---7---7-7-7---7---7-7---7-7-r-5---5---5-5-5---5---5-5---5-5-5-5-| 
   1 e + a 2 e + a 3 e + a 4 e + a 1 e + a 2 e + a 3 e + a 4 e + a 

G|-----------------------------------------------------------------| 
D|-----------------------------------------------------------------| 
A|-----------------------------------------------------------------| 
D|-3-3---3-3-3---3---3-3---3-3-r-3---3---3-3-3---3---3-3---3-5-r-7-| 
   1 e + a 2 e + a 3 e + a 4 e + a 1 e + a 2 e + a 3 e + a 4 e + a 

G|-----------------------------------------------------------------| 
D|-----------------------------------------------------------------| 
A|-----------------------------------------------------------------| 
D|---7---7-7-7---7---7-7---7-7-r-7---7---7-7-7---7---7-7---7-7-r-0-| 
   1 e + a 2 e + a 3 e + a 4 e + a 1 e + a 2 e + a 3 e + a 4 e + a 

G|-----------------------------------------------------------------| 
D|-----------------------------------------------------------------| 
A|---5---5-------5-------------------------------------------------| 
D|---------0-0-------0-0---0-0-r-3---3---3-3-3---3---3-3---3-3-r-7-| 
   1 e + a 2 e + a 3 e + a 4 e + a 1 e + a 2 e + a 3 e + a 4 e + a 

G|-----------------------------------------------------------------| 
D|-----------------------------------------------------------------| 
A|-----------------------------------------------------------------| 
D|---7---7-7-7---7---7-7---7-7-r-5-5-5-5-5-5-5-5-5-5---5---5-5-5-5-| 
   1 e + a 2 e + a 3 e + a 4 e + a 1 e + a 2 e + a 3 e + a 4 e + a 

Bridge 

Rest 8 Bars 

Interlude 

G|-----------------------------------------------------------------| 
D|-----------------------------------------------------------------| 
A|-----------------------------------------------------------------| 
D|-3---3---3---3---3---3---3---3-3-3---3---3---3---3-3-3---3---3-3-| 
   1 e + a 2 e + a 3 e + a 4 e + a 1 e + a 2 e + a 3 e + a 4 e + a 

G|-----------------------------------------------------------------| 
D|-----------------------------------------------------------------| 
A|-0---0---0---0---0-0-0---3---0-----------------------------------| 
D|---------------------------------5---5---5---5---5-5-5---7-7-7-7-| 
   1 e + a 2 e + a 3 e + a 4 e + a 1 e + a 2 e + a 3 e + a 4 e + a 

Chorus 

G|------------------------------------------------------------------| 
D|o-----------------------------------------------------------------| 
A|o-----------------------------------------------------------------| 
D|--3-3---3---3---3-3-3-3---3-3-r-3---3---3---3---3-3-3-3---3-5-r-7-| 
    1 e + a 2 e + a 3 e + a 4 e + a 1 e + a 2 e + a 3 e + a 4 e + a 

G|-----------------------------------------------------------------| 
D|-----------------------------------------------------------------| 
A|-----------------------------------------------------------------| 
D|---7---7---7---7-7-7-7---7-7-r-7---7---7---7---7-7-7-7-7-7-7-r-0-| 
   1 e + a 2 e + a 3 e + a 4 e + a 1 e + a 2 e + a 3 e + a 4 e + a 

G|-----------------------------------------------------------------| 
D|-----------------------------------------------------------------| 
A|---5-------5-----------------------------------------------------| 
D|-------0-------0-0-0-0---0-0-r-3---3---3---3---3-3-3-3---3-3-r-7-| 
   1 e + a 2 e + a 3 e + a 4 e + a 1 e + a 2 e + a 3 e + a 4 e + a 

G|------------------------------------------------------------------| 
D|-----------------------------------------------------------------o| 
A|-----------------------------------------------------------------o| 
D|---7---7---7---7-7-7-7---7-7-r-5---5---5---5---5-5-5-5-5-5-5-5-5--| 
   1 e + a 2 e + a 3 e + a 4 e + a 1 e + a 2 e + a 3 e + a 4 e + a 

************************************ 

| r Release 

************************************ 
		  

See also:

bass Deep Purple - Burn bass Deep Purple - Child in time bass Deep Purple - Smoke On The Water bass Deep Purple - Lady Double Dealer bass Deep Purple - Fire Ball bass Deep Purple - Smoke On The Water (ver. 3)
e-chords

Other versions:

bass Beartooth - Clever
auto scroll beats size up size down change color hide chords drawings
tab show chords e-chords YouTube Clip e-chords hide all tabs e-chords go to top tab

share