Beartooth

King Of Anything

Beartooth

chords

by  BRUNBLAZKOWSKI

save to print version add songbook text version e-mail correct tuner
chordsukulelecavacokeyboardtabbassdrumsharmonicaflute Guitar Pro
close

there isn't a video lesson for this song

chords

King Of Anything

	  		
Tuning: Drop C (C G C F A D) 

Main Riff: 

D|-----------------|-----------------| 
A|-----------------|-----------------| 
F|-----------------|-----------------| 
C|-----0-------0---|-----3---3-0-3b--| 
G|---5---5---5---5-|---5---5---0-3b--|  
C|-0-------3-------|-5---------0-3b--| 
                               . 
Let every note ring. Note that the palm muted open power chord here is heavily palm muted; it  
almost sounds like a dead note. 

Play the Main Riff six times before playing the Chorus. 

Chorus: 

D|------------------------|------------------------|------------------------| 
A|------------------------|------------------------|------------------------| 
F|------------------------|------------------------|------------------------| 
C|-7--7--7--7--7--7--7--7-|-3--3--3--3--3--3--3--3-|-3--3--3--3--3--3--3--3-| 
G|-8--8--8--8--8--8--8--8-|-5--5--5--5--5--5--5--5-|-5--5--5--5--5--5--5--5-| 
C|-8--8--8--8--8--8--8--8-|-5--5--5--5--5--5--5--5-|-0--0--0--0--0--0--0--0-| 

------------------------|------------------------|------------------------| 
------------------------|------------------------|------------------------| 
------------------------|------------------------|------------------------| 
-3--3--3--3--3--3--3--3-|-7--7--7--7--7--7--7--7-|-3--3--3--3--3--3--3--3-| 
-5--5--5--5--5--5--5--5-|-8--8--8--8--8--8--8--8-|-5--5--5--5--5--5--5--5-| 
-3--3--3--3--3--3--3--3-|-8--8--8--8--8--8--8--8-|-5--5--5--5--5--5--5--5-| 

------------------------|------------------------| 
------------------------|------------------------| 
------------------------|------------------------| 
-3--3--3--3--3--3--3--3-|-3--3--3--3--3----------| 
-5--5--5--5--5--5--5--5-|-5--5--5--5--5----------| 
-0--0--0--0--0--0--0--0-|-3--3--3--3--3----------| 

------------------- 
.     Palm mute 
b     Bend 
------------------- 
		  

See also:

chords Ira! - Tanto Quanto Eu chords Ira! - Vida Passageira chords Ira! - Eu Quero Sempre Mais chords Ike & Tina Turner - Proud Mary chords Ira! - Dias de Luta chords Deep Purple - Lazy/new chords
e-chords

Other versions:

chords Sara Bareilles - King Of Anything chords Beartooth - King Of Anything chords Alex Band - King Of Anything
auto scroll beats size up size down change color hide chords simplify chords drawings columns
tab show chords e-chords YouTube Clip e-chords hide all tabs e-chords go to top tab

share