Beartooth

In Between

Beartooth

chords Beginner beginner

by  JOAOEWERTON

save to print version add songbook text version e-mail correct tuner
chordsukulelecavacokeyboardtabbassdrumsharmonicaflute Guitar Pro
close

there isn't a video lesson for this song

chords

In Between

	  		

Tuning: Drop C 

INTRO 
D|-------------------------------------------| 
A|-------------------------------------------| 
F|-------------------------------------------| 
C|-------------------------------------------| 
G|-------------------------------------------| 
C|-14(x16)-----10(x16)-----7(x16)-----10(x16)|(x2) 



VERSE 
D|-----------------------------------------------------------------------| 
A|-----------------------------------------------------------------------| 
F|-----------------------------------------------------------------------| 
C|---2-2-2--2--2-2-----5-5-5-5--5--0-------------------------------------| 
G|---2-2-2--2--2-2-----5-5-5-5--5--0-------------------------------------| 
C|---2-2-2--2--2-2-----5-5-5-5--5--0---12-12-12-12-----------------------| 
                                                                            (x2) 
D|-----------------------------------------------------------------------| 
A|-----------------------------------------------------------------------| 
F|-----------------------------------------------------------------------| 
C|---2-2-2--2--2-2-----5-5-5-5--5--0---x-x-x-x---------------------------| 
G|---2-2-2--2--2-2-----5-5-5-5--5--0---x-x-x-x---------------------------| 
C|---2-2-2--2--2-2-----5-5-5-5--5--0---x-x-x-x---------------------------| 



Pre-Chorus 
D|------------------------------------------------------| 
A|------------------------------------------------------| 
F|---12------14------16------12------12-------------x7--| 
C|-----(x4)----(x4)----(x4)----(x8)----(x4)--9------x7--| 
G|---10------12------14------9-------10------9(x5)------| 
C|-------------------------------------------9----------| 

Chorus 
D|------------------------------------------------------------------------| 
A|------------------------------------------------------------------------| 
F|------------------------------------------------------------------------| 
C|---5-5-5-5---0-0-0----------0---7-7-7-7--x--------10-10-10--x-10-x-10---|(x2) 
G|---5-5-5-5---0-0-0----------0---7-7-7-7--x-(x4)---10-10-10--x-10-x-10---| 
C|---5-5-5-5---0-0-0---12(x4)-0---7-7-7-7--x--------10-10-10--x-10-x-10---| 

D|---------------------------------------------------------| 
A|------------------------------------------------------x5-| 
F|---------------d-u-d-u-d----------------------------x5---| 
C|---5-5-5-5-\---0-0-0-0-0---7-7-7-7---x-10-x-10----x5-----| 
G|---5-5-5-5-\---0-0-0-0-0---7-7-7-7---x-10-x-10-----------| 
C|---5-5-5-5-\---0-0-0-0-0---7-7-7-7---x-10-x-10-----------| 

D|------------------------------------------------------------------------| 
A|------------------------------------------------------------------------| 
F|------------------------------------------------------------------------| 
C|---5-5-5-5---0-0-0----------0---7-7-7-7--x--------10-10-10--x-10-x-10---| 
G|---5-5-5-5---0-0-0----------0---7-7-7-7--x-(x4)---10-10-10--x-10-x-10---| 
C|---5-5-5-5---0-0-0---12(x4)-0---7-7-7-7--x--------10-10-10--x-10-x-10---| 



SECOND VERSE 
D|---------------------------------------------------| 
A|---------------------------------------------------| 
F|---------------------------------------------------| 
C|---------------------------------------------------| 
G|---------------------------------------------------| 
C|---2-2-2--2--2-2-----5-5-5-5--5--0---12-12-12-12---| 

D|---------------------------------------------------| 
A|---------------------------------------------------| 
F|---------------------------------------------------| 
C|---------------------------------------------------| 
G|---------------------------------------------------| 
C|---2-2-2--2--2-2-----5-5-5-5--5--0---x2-x2-x2-x2---| 

D|-----------------------------------------------------------------------| 
A|-----------------------------------------------------------------------| 
F|-----------------------------------------------------------------------| 
C|---2-2-2--2--2-2-----5-5-5-5--5--0-------------------------------------| 
G|---2-2-2--2--2-2-----5-5-5-5--5--0-------------------------------------| 
C|---2-2-2--2--2-2-----5-5-5-5--5--0---12-12-12-12-----------------------| 

D|-----------------------------------------------------------------------| 
A|-----------------------------------------------------------------------| 
F|-----------------------------------------------------------------------| 
C|---2-2-2--2--2-2-----5-5-5-5--5--0---x-x-x-x---------------------------| 
G|---2-2-2--2--2-2-----5-5-5-5--5--0---x-x-x-x---------------------------| 
C|---2-2-2--2--2-2-----5-5-5-5--5--0---x-x-x-x---------------------------| 



SECOND Pre-Chorus 
D|----------------------------------------------------------| 
A|----------------------------------------------------------| 
F|---12------14------16------12------12-----------------x7--| 
C|-----(x4)----(x4)----(x4)----(x4)----(x8)--9--9--9-9--x7--| 
G|---10------12------14------10------9-------9--9--9-9------| 
C|-------------------------------------------9--9--9-9------| 

SECOND Chorus 
D|------------------------------------------------------------------------| 
A|------------------------------------------------------------------------| 
F|------------------------------------------------------------------------| 
C|---5-5-5-5---0-0-0----------0---7-7-7-7--x--------10-10-10--x-10-x-10---|(x2) 
G|---5-5-5-5---0-0-0----------0---7-7-7-7--x-(x4)---10-10-10--x-10-x-10---| 
C|---5-5-5-5---0-0-0---12(x4)-0---7-7-7-7--x--------10-10-10--x-10-x-10---| 

D|---------------------------------------------------------| 
A|------------------------------------------------------x5-| 
F|---------------d-u-d-u-d----------------------------x5---| 
C|---5-5-5-5-\---0-0-0-0-0---7-7-7-7---x-10-x-10----x5-----| 
G|---5-5-5-5-\---0-0-0-0-0---7-7-7-7---x-10-x-10-----------| 
C|---5-5-5-5-\---0-0-0-0-0---7-7-7-7---x-10-x-10-----------| 

D|-------------------------------------------------------------------| 
A|-------------------------------------------------------------------| 
F|-------------------------------------------------------------------| 
C|---5-5-5-5---0-0-0----------0---7-7-7-7--x--------10-10-10--5-7-10-| 
G|---5-5-5-5---0-0-0----------0---7-7-7-7--x-(x4)---10-10-10--5-7-10-| 
C|---5-5-5-5---0-0-0---12(x4)-0---7-7-7-7--x--------10-10-10--5-7-10-| 



BRIDGE 
D|-------------------------| 
A|-------------------------| 
F|-------------------------| 
C|---2-x-x-2----2--2-------|(x4) 
G|---2-x-x-2-/6-2--2-------| 
C|---2-x-x-2----2--2-------| 

D|------------------------------------------------------------------------------------------| 
A|------------------------------------------------------------------------------------------| 
F|------------------------------------------------------------------------------------------| 
C|---2-x-x-2----2--2---10-x-x-10-----10-10---5-x-x-5----5-5------------------------------\--|(x2) 
G|---2-x-x-2-/6-2--2---10-x-x-10-/14-10-10---5-x-x-5-/9-5-5---5-x-x-5-/9-5-5--5--5--5-5--\--| 
C|---2-x-x-2----2--2---10-x-x-10-----10-10---5-x-x-5----5-5---4-x-x-4----4-4--4--4--4-4--\--| 



BREAK 
*This is just the vocal melody during the break after the bridge* 
D|---------------------------------------------------------------------------| 
A|-----------8--10--12----------8--10----------8--13--12--10--8--------------| 
F|---7-7--9-------------7-7--9---------7-7--9--------------------9-----------| 
C|---------------------------------------------------------------------------| 
G|---------------------------------------------------------------------------| 
C|---------------------------------------------------------------------------| 



END Chorus 
D|------------------------------------------------------------------------| 
A|------------------------------------------------------------------------| 
F|------------------------------------------------------------------------| 
C|---5-5-5-5---0-0-0----------0---7-7-7-7--x--------10-10-10--x-10-x-10---| 
G|---5-5-5-5---0-0-0----------0---7-7-7-7--x-(x4)---10-10-10--x-10-x-10---| 
C|---5-5-5-5---0-0-0---12(x4)-0---7-7-7-7--x--------10-10-10--x-10-x-10---| 

D|---------------------------------------------------------| 
A|------------------------------------------------------x5-| 
F|---------------d-u-d-u-d----------------------------x5---| 
C|---5-5-5-5-\---0-0-0-0-0---7-7-7-7---x-10-x-10----x5-----| 
G|---5-5-5-5-\---0-0-0-0-0---7-7-7-7---x-10-x-10-----------| 
C|---5-5-5-5-\---0-0-0-0-0---7-7-7-7---x-10-x-10-----------| 

D|------------------------------------------------------------------------| 
A|------------------------------------------------------------------------| 
F|------------------------------------------------------------------------| 
C|---5-5-5-5---0-0-0----------0---7-7-7-7--x--------10-10-10--x-10-x-10---| 
G|---5-5-5-5---0-0-0----------0---7-7-7-7--x-(x4)---10-10-10--x-10-x-10---| 
C|---5-5-5-5---0-0-0---12(x4)-0---7-7-7-7--x--------10-10-10--x-10-x-10---| 



ENDING 
D|-------------------------------------------------------------| 
A|-------------------------------------------------------------| 
F|-------------------------------------------------------------| 
C|---5-5-5-5-x-5-----------------2-2-2-2-x-2---10-10-10-x-10---| 
G|---5-5-5-5-x-5---5-5-5-5-x-5---2-2-2-2-x-2---10-10-10-x-10---| 
C|---5-5-5-5-x-5---4-4-4-4-x-4---2-2-2-2-x-2---10-10-10-x-10---| 

D|--------------------------------------------------------| 
A|--------------------------------------------------------| 
F|--------------------------------------------------------| 
C|---5-5-5-5-x-5-----------------2-2-2-2-x-2---10-10-10---| 
G|---5-5-5-5-x-5---5-5-5-5-x-5---2-2-2-2-x-2---10-10-10---| 
C|---5-5-5-5-x-5---4-4-4-4-x-4---2-2-2-2-x-2---10-10-10---| 

*Optional Vocal Harmony* 
D|---------------------------------------------| 
A|---------------------------------------------| 
F|---16--14--12--11--12--9----16--14--12--19---| 
C|---------------------------------------------|(x2) 
G|---14--12--10--9---10--7----14--12--10--17---| 
C|---------------------------------------------| 
		  

Full key step upFull key step up
Half key step upHalf key step up
Half key step downHalf key step down
Full key step downFull key step down
hide glossary

See also:

chords Ira! - Núcleo Base (ver. 2) chords Deep Purple - April chords Ira! - Dias de Luta chords Ira! - Ciganos chords Deep Purple - Soldier Of Fortune chords Deep Purple - Burn
e-chords

Other versions:

chords Collective Soul - In Between chords Linkin Park - In Between chords Jamie Walters - In Between chords Beartooth - In Between chords Kelsea Ballerini - In Between chords 6LACK - In Between
auto scroll beats size up size down change color hide chords simplify chords drawings columns
tab show chords e-chords YouTube Clip e-chords hide all tabs e-chords go to top tab

share