Beartooth

Beaten In Lips

Beartooth

tabs Easy easy

by  VICTBORGES

save to print version add songbook text version e-mail correct tuner
chordsukulelecavacokeyboardtabbassdrumsharmonicaflute Guitar Pro
close

there isn't a video lesson for this song

chords

Beaten In Lips

	  		        INTRO 
D|---------------------------------| 
A|---------------------------------| 
F|---------------------------------| 
C|6-5-5-5-5-6-5-5-5-5-6-5-/8-------| 
G|6-5-5-5-5-6-5-5-5-5-6-5-/8-------| 
C|6-5-5-5-5-6-5-5-5-5-6-5-/8-------| 

       Chorus 
D|-------------------------------| 
A|-------------------------------| 
F|------7-7-7-5-5-5--------------| 
C|2-2-2-X-X-X-X-X-X-7-7-7--------| 
G|0-0-0-5-5-5-3-3-3-7-7-7--------| 
C|------------------7-7-7--------| 

       OUTRO 
D|----------------------------------------------------------------------------------| 
A|----------------------------------------------------------------------------------| 
F|----------------------------------------------------------------------------------| 
C|----6b-------7b-------6b-------7b-6-5-3-0-----1b-------5b------1b------5b-4-3-1-0-| 
G|----6b-------5b-------6b-------5b-6-5-3-0-----1b-------3b------1b------3b-4-3-1-0-| 
C|0-0-6b-0-0-0----0-0-0-6b-0-0-0----6-5-3-0-0-0-1b-0-0-0---0-0-0-1b-0-0-0---4-3-1-0-| 
		  

See also:

tabs Ira! - Poço de Sensibilidade (Solo - Acustico Mtv) tabs Deep Purple - Smoke On The Water tabs Deep Purple - Smoke on the water (intro) tabs Ira! - Eu Quero Sempre Mais (Com Pitty, intro) tabs Deep Purple - Smoke on the Water (ver. 2) tabs Deep Purple - Knocking At Your Back Door
e-chords

Other versions:

tabs Beartooth - Beaten In Lips
auto scroll beats size up size down change color hide chords drawings
tab show chords e-chords YouTube Clip e-chords hide all tabs e-chords go to top tab

share