Babes In Toyland

Swamp Pussy

Babes In Toyland

tabs

by  FERNSANTANA

save to print version add songbook text version e-mail correct tuner
chordsukulelecavacokeyboardtabbassdrumsharmonicaflute Guitar Pro
close

there isn't a video lesson for this song

chords

Swamp Pussy

	  		(intro e verso) 
E|--------------|--------------------------------------------------| 
B|--------------|--------------------------------------------------| 
G|--------------|--------------------------------------------------| 
D|-2-2--5--787--|-(4)7-7-xxx--7-7-7--xx--7-7-xxx--7-7-8-7-8/-------| 
A|-2-2--5--787--|-(4)7-7-xxx--7-7-7--xx--7-7-xxx--7-7-8-7-8/-------| 
E|-0-0--3--565--|-(6)5-5-xxx--5-5-5--xx--5-5-xxx--5-5-6-5-6/-------| 

E|---------------| 
B|---------------| 
G|---------------| 
D|-2-2--5--787---| 
A|-2-2--5--787---| 
E|-0-0--3--565---| 

E|-----------------------------------------8-9-10-11/-------------| 
B|-11-11-11-11--10-10--10-10-10-10-9-9-9-9-----------8-9-9-8-9-13~| 
G|----------------------------------------------------------------| 
D|----------------------------------------------------------------| 
A|----------------------------------------------------------------| 
E|----------------------------------------------------------------| 

E|-----------------------------------------------------------------| 
B|--8-9-9-8-9-13-13-13~--8-9-9-8-9b--------------------------------| 
G|-----------------------------------------------------------------| 
D|-----------------------------------------------------------------| 
A|-----------------------------------------------------------------| 
E|-----------------------------------------------------------------| 
		  

See also:

tabs Misc Computer Games - Pokemon - Blue/red - Lavender Town tabs Los Indios Tacunau - Quiero Ser Tu Sombra tabs Misc Television - Thomas The Tank Engine Theme tabs Misc Computer Games - Far Cry 3 - Ukulele Girl tabs La Trampa - Vendas En El Corazon tabs Idir - A Vava Inouva
e-chords

Other versions:

tabs Babes In Toyland - Swamp Pussy
auto scroll beats size up size down change color hide chords drawings
tab show chords e-chords YouTube Clip e-chords hide all tabs e-chords go to top tab

share