Angeles del Infierno

Fuera De La Ley

Angeles del Infierno

tabs Expert expert

by  VICTBORGES

save to print version add songbook text version e-mail correct tuner
chordsukulelecavacokeyboardtabbassdrumsharmonicaflute Guitar Pro
close

there isn't a video lesson for this song

chords

Fuera De La Ley

(Don't Care)

	  		Intro... 
_____________________________x2 
1----------------------------------- 
2----------------------------------- 
3----------------------------------- 
4-10/9\10/9\10/9\10/9\10~~~~-------- 
5----------------------------------- 
6----------------------------------- 

Riff A 
1----------------------------------- 
2----------------------------------- 
3-9--7--5--------------------------- 
4-7--5--3---10--9--7----99999-99~--- 
5------------8--7--5----77777-77~--- 
6----------------------------------- 

Riff B 
1-------------------------------------------------------- 
2-------------------------------------------------------- 
3-------------------------------------------------------- 
4-------------------------------------------------------- 
5-9999999999999/555555555555555777777777777777444444444-- 
6-------------------------------------------------------- 

1------------------------------------------------------- 
2------------------------------------------------------- 
3------------------------------------------------------- 
4------------------------------------------------------- 
5-9999999999999/55555555555555577777777777777799999999-- 
6------------------------------------------------------- 

Riff C 
1---------------|-------------|---------|----------------|--- 
2---------------|-------------|---------|----------------|--- 
3-9~9/-11\--9~--|--5~----7~---|--11/-9~-|--9~9/-11\--9~--|--- 
4-7~7/--9-\-7~--|--3~----5~---|---9/-7~-|--7~7/--9-\-7~--|--- 
5---------------|-------------|---------|----------------|--- 
6---------------|-------------|---------|----------------|--- 

1--------------|----------------------- 
2--------------|----------------------- 
3---5~----7~---|--12~--11~--9~--------- 
4---3~----5~---|--10~---9~--7~--------- 
5--------------|----------------------- 
6--------------|----------------------- 

Chorus 
1-----------|--------------------|-----------|-----------|---- 
2-----------|--------------------|-----------|-----------|---- 
3-----------|--------------------|-----------|-----------|---- 
4--7/9--9~--|--5/9--9~--12-11-9--|--7/9--9~--|--5/5--5~--|---- 
5--5/7--7~--|--3/7--7~--10--9-7--|--5/7--7~--|--3/7--7~--|---- 
6-----------|--------------------|-----------|-----------|---- 

1------------------- 
2------------------- 
3--------2~--------- 
4--5--4--2~--------- 
5--3--2--0~--------- 
6------------------- 

Interlude 1 
1------------------------------------------------ 
2------------------------------------------------ 
3------------------------------------------------ 
4------------7--12--10--9--7------5~-10--9--7~--- 
5--7--9--10-------------------8~----------------- 
6------------------------------------------------ 

Riff D1                         
1---------------------- 
2---------------------- 
3---------------------- 
4--9--9/11\7----------- 
5--7--7/-9\5----------- 
6---------------------- 

Riff D2                         
1------------------------------------- 
2------------------------------------- 
3------------------------------------- 
4--9--9/11\7--999999999999999--------- 
5--7--7/-9\5--777777777777777--------- 
6------------------------------------- 
             Pm................ 


Riff E 
__________________________________________________x2 
1-------------------------------------------------|------- 
2-------------------------------------------------|------- 
3-------------------------------------------------|------- 
4-(10)-101010101010101010~--(9)-999999999~---5~---|------- 
5-(-8)--8-8-8-8-8-8-8-8-8~--(7)-777777777~---3~---|------- 
6-------------------------------------------------|------- 

1-------------------------------- 
2-------------------------------- 
3-------------------------------- 
4-10-10-10--11--12/-------------- 
5--8--8--8---9--10/-------------- 
6-------------------------------- 


Solo  

              |____________x21        ^ 
1-------------|--19p15--------|---20br~-|--19p17-20p17-19p17-21p17--- 
2--\/---------|--------17-----|---------|---------------------------- 
3--\/slash----|---------------|---------|---------------------------- 
4--\/---------|---------------|---------|---------------------------- 
5-------------|---------------|---------|---------------------------- 
6-------------|---------------|---------|---------------------------- 

1-19p17-19p17-19p17-19p17-19p17-20p17-20p17-20p17-20p17-20p17-20p17-- 
2-------------------------------------------------------------------- 
3-------------------------------------------------------------------- 
4-------------------------------------------------------------------- 
5-------------------------------------------------------------------- 
6-------------------------------------------------------------------- 
                                  ^  ^  ^  ^  ^  ^  ^  ^  ^ 
1-20p17-20p17-20p17-20p17-20p17--18-17-18-17-17-17-17-17-17--------- 
2------------------------------------------------------------------- 
3------------------------------------------------------------------- 
4------------------------------------------------------------------- 
5------------------------------------------------------------------- 
6------------------------------------------------------------------- 

1------------------------------------------------------------------- 
2-8p7------8p7------8p9------8p9------------------------------------ 
3-----10~------10~------10~------10~---10p8-7~-10p8-7~-10p8-7~------ 
4------------------------------------------------------------------- 
5------------------------------------------------------------------- 
6------------------------------------------------------------------- 

1------------------------------------------------------------------- 
2------------------------------------------------------------------- 
3-8p7---8p7----8p7------------8p7-8p7------------------------------- 
4-----9-----10-----8--8p7-9p7---------10-8p7------------------------ 
5--------------------------------------------7p10-9p7-8p7-----8p7--- 
6---------------------------------------------------------7p9------- 

1------------------------------------------------------------------- 
2------------------------------------------------------------------- 
3------------------------------------------------------------------- 
4------------------------------------------------------------------- 
5--------------8p7-8p7-8p7-9p7-9p7--10p9-10p9-10p9-12p9-12p9-10p9--- 
6-8p7-9p7-10p7------------------------------------------------------ 

1----------------------------------------------------------------------- 
2---^----------10b12-14---13p12p10-13p12p10-13p12p10-13p11p10-13p11p10-- 
3--12br-(12)------------------------------------------------------------ 
4----------------------------------------------------------------------- 
5----------------------------------------------------------------------- 
6----------------------------------------------------------------------- 

1-----------|----------------------------------------------------------- 
2-17p15p12--|---^---------^---------^---------^----------17p14---------- 
3-----------|--16brp13---17brp13---16brp13---15brp13-----------17------- 
4-----------|----------------------------------------------------------- 
5-----------|----------------------------------------------------------- 
6-----------|----------------------------------------------------------- 


1----------------------------------------------------------------------- 
2-17p14-----17p14-----17p14-----17p14--------(15)///(17)\\\(5)---------- 
3-------14--------14--------15--------15-----(15)///(17)\\\(5)---------- 
4----------------------------------------------------------------------- 
5----------------------------------------------------------------------- 
6----------------------------------------------------------------------- 

Chorus 2nd 
_________x2 
1----------|------------------------ 
2----------|------------------------ 
3----------|------------------------ 
4--7/9-9~--|--5/7-4~---------------- 
5--5/7-7~--|--3/5-2~---------------- 
6----------|------------------------ 

Riff F 
 ____________x4 
1--------------|---------------- 
2--------------|---------------- 
3--------------|---------------- 
4--7--7/9\-----|--(5)-(7)------- 
5--5--5/7\-----|--(3)-(5)------- 
6--------------|---------------- 

Outro 
1------------------------------------------------------- 
2------------------------------------------------------- 
3---------------2~-------------------------------------- 
4-12-11-9-7-5-4-2~--12-11-9-7-5-4-222222222~----5~------ 
5-10--9-7-5-3-2-0~--10--9-7-5-3-2-000000000~----3~------ 
6------------------------------------------------------- 


Proggression: 

Intro... 
Riff A 
Riff B 
Riff C     Con el verso 1. 
Riff D1 x3 Vives al margen........ 
Riff A 
Chorus  x2 
Interlude 1 
Riff C     Con el verso 2. 
Riff D2 x3 Lo dedos te limpias.... 
Riff A 
Chorus  x2 
Solo   /   Con el Ritmo de la Riff B 
Riff E 
Riff D2 x3 Te apuntan con armas.... 
Riff A 
Chorus 2nd 
Chorus  x2 
Interlude 1 x2 
Outro. 


Letras; 

Vas de cuero y usas jeans 
Y te gusta privar. 
Vives de noche, el sol siega tus ojos 
Hueles a vicio y alcohol. 
Vives al margen de la authoridad, Y para ellos 
Un sospechoso sin duda seras,  
y estaras: 

Fuera, Fuera de la ley  
Fuera, Fuera de la ley 
Fuera, Fuera de la ley  
Fuera, Fuera de su ley 


Perseguido sin piedad, 
por honbres de metal. 
Siempre tras de ti, 
te la queren fumar. 
No te dejan empaz. 

Los dedos te limopias con un algodon, 
y restos de tinta te quedan. 
Un nuevo expediente, peligro social. 
Y ahora ya estas:  

Fuera, Fuera de la ley  
Fuera, Fuera de la ley 
Fuera, Fuera de la ley  
Fuera, Fuera de su ley 

Solo 

Te apuntan con armas, no puedes hablar. 
Despues de unas horas te dicen. 
Por esta vez ya te puedes marchar, 
pero estaras: 

Fuera, Fuera de la ley  
Fuera, Fuera de la ley 
Fuera, Fuera de la ley  
Fuera, Fuera de su ley 

Fuera, Fuera de la ley  
Fuera, Fuera de la ley 
Fuera, Fuera de la ley  
Fuera, Fuera de su ley 

_________________________________________________________________________ 


Espero que les guste y que se oiga mas o menos. 
Solo recuerden que 'The Metal Fucking Rules'............. 
Saludos desde Los Angeles CA.  Diganme sus preguntas o reacciones 
de las rolas que saco. 
Edgar Corona: Mandenme sus peticiones culeros, yo se las saco de  
cualquier banda de metal nada de pop o rap puro metal. 
Comunicarse con el 'Metal God' at; 
[email protected]
		  

auto scroll beats size up size down change color hide chords drawings
tab show chords e-chords YouTube Clip e-chords hide all tabs e-chords go to top tab

share