Angeles del Infierno

Donde Estabas Tu

Angeles del Infierno

tabs Intermediate intermediate

by  VICTBORGES

save to print version add songbook text version e-mail correct tuner
chordsukulelecavacokeyboardtabbassdrumsharmonicaflute Guitar Pro
close

there isn't a video lesson for this song

chords

Donde Estabas Tu

	  		ANGELES DEL INFIERNO 
---DONDE ESTABAS TU----- 

LA PAZ OZ DEJO 
LA PAZ OZ DOI 
DAOS LA PAZ 
JA JAJ JA 

INTRO  
B 
VARIAS VECES 
e---------------------- 
B--------------------- 
G-------------------- 
D-------9------------- 
A-------9------------- 
E---7----------------- 

VERSO 1 
USA ESTOS ACORDES EN LAS SIGUIENTES PARTES DE LA CANCION 
ESCUCHA LA CANCION PARA QUE NOTES EN DONDE EMPIEZAN 
 LAS ESCALAS 
e------------------------------------------------------------------ 
B------------------------------------------------------------------- 
G----------------------------------------------------------------- 
D----------------------------------------------------------------- 
A-5/6---5/6----------------------------------------------------- 
E----------------8-8-8-8-8-8-8-8-----7-7-7-7-7-7-7-7------ 

Y YA ALGUIEN DEJO ESCRITO  
QUE DEIS LA PAZ A VUESTROS HERMANOS  

DO                SI 
QUIZAS TE OLVIDAS DESDE LOS NEGROS 
DO 
DE LOS INDIOS 
SI 
Y DEL QUE NO ES BLANCO. 

VERSO2 
e----------------------------------------------------------------- 
B---------------------------------------------------------------- 
G---------------------------------------------------------------- 
D---------------------------------------------------------------- 
A--5/6----5/6-------------------------------------------------- 
E-----------------8888888888------777777777777------- 

ANTE MIS OJOS TODOS SOIS IGUALES 
TANTO LOS POBRES COMO LOS RICOS 

C                    B         
POR ESO MUEREN TANTOS NIŅOS DE HAMBRE 
C                   B 
Y A OTROS LES SOBRA PARA ARMAS DE COMBATE 

CORO 

B       G    B 
DONDE  ESTABAS  TU 
G  
CUANDO CAYO LA BOMBA EN HIROSHIMA 

B       G    B 
DONDE  ESTABAS  TU 
G 
CUANDO ESTALLO LA GUERRA DE VIETNAM 

B       G    B 
DONDE  ESTABAS  TU 
SOL 
CUANDO MORIAN DE HAMBRE EN ETIOPIA 
                 B(VARIAS VECES) 
DONDE ESTABAS TU? 

EL RESTO DE LA CANCION ES IGUAL, 
SOLO ESCUCHA LOS CAMBIOS Y LISTO.. 

SOLO (2 veces) 
e-11--12-14-12-14-12-14-12-14-12-14--------------------------------------------- 
B-----------------------------------------------13-15-13-15-13-15-13-15-13-15--- 
G------------------------------------------------------------------------------- 
LUEGO 
              B    B     A    G                   A     A     G    F# 
e---12--12----------------------------------12--12------------------------------ 
B------------------------------------------------------------------------------- 
G------------------------------------------------------------------------------- 
D---------------9----9------7------5--------------------7----7-------5------4--- 
A---------------9----9------7------5--------------------7----7-------5------4--- 
E------------7-----7------5------3-------------------5-----5-------3------2----- 

FINALMENTE 
                 						  
B    C   D   E   Fera   SOL1era          

    FA1era                       SOL1era 
e---------------             e----------------- 
B---------------             B----------------- 
G---------------             G----------------- 
D-------10------             D-------12---------- 
A---8-----------             A---10-------------- 
E---------------             E----------------- 

CORO DE NUEVO... 

B      G     B 
DONDE ESTABAS   TU....  etc etc. 

TERMINA CON EL INTRO VARIAS VECES.. 
FIN.
		  

Full key step upFull key step up
Half key step upHalf key step up
Half key step downHalf key step down
Full key step downFull key step down
auto scroll beats size up size down change color hide chords drawings
tab show chords e-chords YouTube Clip e-chords hide all tabs e-chords go to top tab

share