Angeles del Infierno

317

Angeles del Infierno

tabs Expert expert

by  EMERGURJAO

save to print version add songbook text version e-mail correct tuner
chordsukulelecavacokeyboardtabbassdrumsharmonicaflute Guitar Pro
close

there isn't a video lesson for this song

chords

317

	  		iNtRo: 
--::---------------------------------------------:: 
--::---------------------------------------------:: 
--::---------------------------------------------::   * 3 veces 
--::---------------------------------------------:: 
--::--7-7---7/5/7--5------7-7---7/5/7-----5--7---:: 
--::--5-5---5/3/5--3------5-5---5/3/5-----3--5---:: 

--::------------------------------::-- 
--::--------5b--5-5/1-------------::-- 
--::--------5b--5-5/1-------------::-- Esto parte solo la hace despues de la 3a vez 
--::------------------------------::-- de la intro. 
--::--0-0-0-----------------------::-- 
--::------------------------------::-- 


Riff 1: 
--::---------------------------------------------:: 
--::---------------------------------------------:: 
--::---------------------------------------------::   * 4 veces 
--::---------------------------------------------:: 
--::--7-7---7/5/7--5------7-7---7/5/7-----5--7---:: 
--::--5-5---5/3/5--3------5-5---5/3/5-----3--5---:: 

Riff 2: 
--::---------::-- 
--::---------::-- 
--::---------::-- 
--::---------::-- 
--::--7-7-7--::-- 
--::--5-5-5--::-- 

Riff 3: 
--::-----::-- 
--::-----::-- 
--::-----::-- 
--::-----::-- 
--::--7--::-- 
--::--5--::-- 

Riff 4: 
--::-------------------::-- 
--::-------------------::-- 
--::-------------------::-- 
--::-------------------::--     * 2 veces 
--::--7---5-----7---9--::-- 
--::--5---3-----5---7--::-- 

Riff 5: 
--::---------------------:-----------------------------::-- 
--::---------------------:-----------------------------::-- 
--::---------------------:-----------------------------::-- 
--::-------5-------------:-------5---------------------::-- 
--::--7----3----5----2---:--7----3----5----2--2----7---::-- 
--::--5---------3----0---:--5---------3----0--0----5---::-- 

Riff 7: 
--::-------::-- 
--::-------::-- 
--::-------::-- 
--::-------::-- 
--::--7-7--::-- 
--::--5-5--::-- 

intro 
--------------------------------------------------- 
                     Riff 1 
Perdido en una calle 
                               Riff 1 
alla por las tiendas de mexico 
                               Riff 1 
un dos tres me habia escondido 
                                  Riff 1 
por dar respuestas a mi tentación 

------------------------------------------------- 
               Riff 2        Riff 2      Riff 3     Riff 3 
y en la puerta        numero        tres        uno        siete  ¡¡diecisiete!! 

------------------------------------------------- 
Me hablas de amor 
dices que lo enseño 
no se si creerte 
no soy el primero                   (En toda esta parte va el riff 4) 
Me haces sentir 
todo un caballero 
pero en el fondo yo se que eres 

--------------------------------------------------- 
Bella de dia 
Zorra, zorra por la noche 
bella de dia                                   (En todo esto va el Riff 5) 
este este es tu momento, este es tu momento 
Señorita ¡High! 

---------------------------------------------------- 
                            Riff 1 
Te levantas por las mañanas 
                                      Riff 1 
Siempre pensando a quien vas a cazar 
                                  Riff 1 
Talvez esperas que llegue el dia 
                                   Riff 1 
que alguien crea que vas de verdad 



------------------------------------------------- 
               Riff 2        Riff 2      Riff 3     Riff 3 
y en la puerta        numero        tres        uno        siete  ¡¡diecisiete!! 

------------------------------------------------- 

Tu mirate en frente 
sola en un espejo 
te miras por fuera 
y luego por dentro 
huellas en tu rostro             (En todo esto va el riff 4) 
va pasando el tiempo 
y alli en las pinturas 
guardas tu secreto 

--------------------------------------------------- 
Bella de dia 
Zorra, zorra por la noche 
bella de dia                                   (En todo esto va el Riff 5) 
este este es tu momento, este es tu momento 
Señorita ¡High! 

---------------------------------------------------- 


Solo  (El solo no tuve tiempo de sacarlo pero luego se los mando) 

---------------------------------------------------- 
                     Riff 7                                Riff 7 
Cuando te ves sonries       tus ojos dicen de ti la verdad 
                  Riff 3                      Riff 3       Riff 3       Riff 3 
otra mentira mas          que me va a encopar       por que lo toma lo dejas 
Riff 3    Riff 3    Riff 3   Riff 3    Riff 3   Riff 3     Riff 3   Riff 3 
seguro que otro pronto vendra tu eres de cualquiera que puedes olvidar 

--------------------------------------------------- 
Bella de dia 
Zorra, zorra por la noche 
bella de dia                                   (En todo esto va el Riff 5) 
este este es tu momento, este es tu momento 
Señorita ¡High! 

---------------------------------------------------- 


............Espero que les guste esta rola es muy buena.... 
Si quieren otra escribanme 
 

                                        "El Salvador".............
		  

auto scroll beats size up size down change color hide chords drawings
tab show chords e-chords YouTube Clip e-chords hide all tabs e-chords go to top tab

share