Angeles del Infierno

666

Angeles del Infierno

tabs Beginner beginner

by  ELINJENIERILLO

save to print version add songbook text version e-mail correct tuner
chordsukulelecavacokeyboardtabbassdrumsharmonicaflute Guitar Pro
close

there isn't a video lesson for this song

chords

666

	  		Intro Main Riff 
				  
e--------------------|-------------------- 
B--------------------|-------------------- 
G-7---3----5-5--5-5--|-7---3----5-5--5-5-- 
D-7---3-3--5-5--5-5--|-7---3-3--5-5--5-5-- 
A-5---1-3--3-3--3-3--|-5---1-3--3-3--3-3-- 
E-------1------------|-------1------------ 

Riff2 

Esperándote...  
e------------------------------------ 
B------------------------------------ 
G---------------------------555-555-- 
D---------------------------555-555-- 
A-55555555-111----33333333--333-333-- 
E-------------111-------------------- 
(4 times) 

Riff3 
Oh...Oh.. 
e--------------------------------------- 
B--------------------------------------- 
G-7-7-7-7--3-3-------5-5-5-5--5-5--5-5-- 
D-7-7-7-7--3-3--3-3--5-5-5-5--5-5--5-5-- 
A-5-5-5-5--1-1--3-3--3-3-3-3--3-3--3-3-- 
E---------------1-1--------------------- 
(2 times) 

Riff4 

Un saludo, tanto gusto... 
e------------------------------------ 
B------------------------------------ 
G-9--999--7--777--5--555--2-2-------- 
D-9--999--7--777--5--555--2-2-------- 
A-7--777--5--555--3--333--0-0-------- 
E------------------------------------ 
(4 times) 

Chorus Main Riff 

Marca mi número... 
e--------------------|-------------------- 
B--------------------|-------------------- 
G-7---3----5-5--5-5--|-7---3----5-5--5-5-- 
D-7---3-3--5-5--5-5--|-7---3-3--5-5--5-5-- 
A-5---1-3--3-3--3-3--|-5---1-3--3-3--3-3-- 
E-------1------------|-------1------------ 

First Interlude 

e--------------------------------------------- 
B-4-3-4-3b-----6-5-6-5b------4-3-4-3b--------- 
G----------5-55----------7-77-----------7-77-- 
D----------5-55----------7-77-----------7-77-- 
A----------3-33----------5-55-----------5-55-- 
E--------------------------------------------- 

Repeat Riff2 4 times  
then Chorus  
then Riff3 

Second Interlude 

e-----------------------------|---------------------------------------- 
B-4-3-4-3b------4-3-4-3b------|-6-5-6-5b------6-5-6-5b--------8-7-8-7b- 
G----------5-55----------5-55-|----------7-77-----------7-77----------- 
D----------5-55----------5-55-|----------7-77-----------7-77----------- 
A----------3-33----------3-33-|----------5-55-----------5-55----------- 
E-----------------------------|---------------------------------------- 

Repeat Chorus 4 times 

e------------------- 
B------------------- 
G-7-777-77-7/3------ 
D-7-777-77-7/3------ 
A-5-555-55-5/1------ 
E------------------- 


That's all folks! Greeting from Chile! 
[email protected] 







		  

auto scroll beats size up size down change color hide chords drawings
tab show chords e-chords YouTube Clip e-chords hide all tabs e-chords go to top tab

share