10 Years

Forever Fields

10 Years

tabs Beginner beginner

by  IRONPOWER4EVER

save to print version add songbook text version e-mail correct tuner
chordsukulelecavacokeyboardtabbassdrumsharmonicaflute Guitar Pro
close

there isn't a video lesson for this song

chords

Forever Fields

	  		. 

Riff 1 (let everything ring out) 
 D#|-13---12---10---12------------10---12-------------|  
 A#|-------------------------13-------------15--------|  
 F#|--------------------------------------------------|  
 C#|-0------------------------------------------------|  
 G#|--------------------------------------------------|  
 C#|----------------10-------10-------------12--------|  

        "From a birds eye view, God only knew..." 
 D#|-13---12---10---12------------12------------------|  
 A#|-------------------------13--------13---15--------|  
 F#|--------------------------------------------------|  
 C#|-0------------------------------------------------|  
 G#|--------------------------------------------------|  
 C#|----------------10-------10-------------12--------|  

        "We were too rich to entice, too poor for a price..." 
 D#|-13---12---10---12------------10---12-------------|  
 A#|-------------------------13-------------15--------|  
 F#|--------------------------------------------------|  
 C#|-0------------------------------------------------|  
 G#|--------------------------------------------------|  
 C#|----------------10-------10-------------12--------|  

        "There's no life in these seeds, it's the growth of disease..." 
 D#|-17---15---13---12-------15---13---12-------------|  
 A#|----------------------------------------15--------|  
 F#|--------------------------------------------------|  
 C#|-0------------------------------------------------|  
 G#|--------------------------------------------------|  
 C#|----------------10-------10-------------12--------|  

Riff 2  "It's sowing season in these forever fields..." 
 D#|------17-18-17-15------15-17-15-13------13-15-13-12------12------|  
 A#|---15---------------15---------------15----------------------13--|  
 F#|-----------------------------------------------------------------|  
 C#|-0----------------0----------------0-----------------------------|  
 G#|-----------------------------------------------------------------|  
 C#|----------------------------------------------------10-----------|  

Play Riff 2 x4   "It's sowing season in these forever fields..." 
Play Riff 1 x1   "From beneath these bones, God only knows..." 
Play Riff 2 x4   "It's sowing season in these forever fields..." 

Riff 3 
 D#|-14---15---17--------18---17---13------12-------|  
 A#|----------------15------------------------------|  
 F#|------------------------------------------------|  
 C#|-0-----------------------------0----------------|  
 G#|----------------15------------------------------|  
 C#|---------------------------------------10-------|  

Play Riff 3 x5 (let last chord fade out) 

 
		  

See also:

tabs Audioslave - Cochise tabs Red Hot Chili Peppers - Can't Stop (ver. 2) tabs Red Hot Chili Peppers - Suck My Kiss tabs Red Hot Chili Peppers - Californication tabs Incubus - Talk show on mute tabs Paramore - Misery Business (tablaturas)
e-chords

Other versions:

tabs 10 Years - Forever Fields
auto scroll beats size up size down change color hide chords drawings
tab show chords e-chords YouTube Clip e-chords hide all tabs e-chords go to top tab

share with facebook