10 Years

Fade Into (the Ocean)

10 Years

tabs

by  TERR_SCHMITZ

save to print version add songbook text version e-mail correct tuner
chordsukulelecavacokeyboardtabbassdrumsharmonicaflute Guitar Pro
close

there isn't a video lesson for this song

chords

Fade Into (the Ocean)

	  		
Riff 1 (clean) - Let all notes ring out 
D#|---------------------------------------| 
A#|---------------------------------------| 
F#|---------------------------------------| 
C#|-3p0---0-2p0---0-----------------------| 
G#|-5---3---3---3---3-5---5-5-5\3-3-3-3p0-| 
C#|-------------------5---5-5-5\3-3-3-3p0-| 

D#|---------------------------------------| 
A#|---------------------------------------| 
F#|---------------------------------------| 
C#|-3p0---0-2p0---0---0---0-0-0-0-0-0-0-0-| 
G#|-5---3---3---3---3-2---2-2-2/3-3-2-2p0-| 
C#|---------------------------------------| 

Play Riff 1 x4   "Broken shoulders resting on my back..." 

Riff 2 (clean) - Let all notes ring out 
D#|---------------------------------------------------| 
A#|---------------------------------------------------| 
F#|-0------0-------------0----------0-----------0-----| 
C#|-0----0----0-0-0----0----0-----4---4-------4---4---| 
G#|-1--1--------1/3--3--------3h5-------5-3h5-------5-| 
C#|---------------------------------------------------| 

D#|----------------------------------| 
A#|----------------------------------| 
F#|-0------0-------------------------| 
C#|-0----0----0-0-0--0-0-0-0-0-0-0-0-| 
G#|-1--1--------1/3--3-3-3-3-3-3-3-3-| 
C#|----------------------------------| 

Riff 3 (distortion) "...my own epiphany..." 
D#|--------------------------------------------------| 
A#|--------------------------------------------------| 
F#|-3--3-3-3-3-----2-2-2--7-7-7-3--3-3-3-3-----2-2-2-| 
C#|-3--3-3-3-3-3p2-2-2-2--7-7-7-3--3-3-3-3-3p2-2-2-2-| 
G#|-1--1-1-1-1-1p0-0-0-0--5-5-5-1--1-1-1-1-1p0-0-0-0-| 
C#|--------------------------------------------------| 

D#|--------------------------------------------------| 
A#|--------------------------------------------------| 
F#|-7-7-7-3--3-3-3-3-----2-2-2--7-7-7-3--3-3-3-3-----| 
C#|-7-7-7-3--3-3-3-3-3p2-2-2-2--7-7-7-3--3-3-3-3-3p2-| 
G#|-5-5-5-1--1-1-1-1-1p0-0-0-0--5-5-5-1--1-1-1-1-1p0-| 
C#|--------------------------------------------------| 

D#|-----------------| 
A#|-----------------| 
F#|-----------------| 
C#|-2-2-2-2-0-0-0-0-| 
G#|-0-0-0-0-3-3-3-3-| 
C#|-----------------| 
    * * * * 

Riff 4 
D#|-------------------------------------| 
A#|-------------------------------------| 
F#|-------------------------------------| 
C#|-----------------------------5-5-----| 
G#|---3/5---5b6r5---3/5---5b6r5-----6-6-| 
C#|-0-----0-------0-----0---------------| 

D#|-------------------------------------| 
A#|-------------------------------------| 
F#|-------------------------------------| 
C#|-----------------------------5-5-----| 
G#|---3/5---5b6r5---3/5---5b6r5-3-3-5-5-| 
C#|-0-----0-------0-----0-----------5-5-| 

Play Riff 4 x2 (let an open power chord ring at the end) 

Riff 5 (light distortion) "Here I lie with my regret..." 
D#|--------------------------------| 
A#|---6----5------6----6--5--5-----| 
F#|-7------7----7----7----7----7---| 
C#|--------0--------------0------7-| 
G#|--------------------------------| 
C#|--------------------------------| 

D#|---------------------------------------------------| 
A#|---6----6--5-5h6p5------6----6--5------------------| 
F#|-7----7----7--------7------7----7--7-7-7-7-7-7-7-7-| 
C#|-----------0----------7---------0--0-0-0-0-0-0-0-0-| 
G#|---------------------------------------------------| 
C#|---------------------------------------------------| 
                                      * * * * * * * * 

Riff 5 note: Let all notes ring out. 

Solo (distortion w/ delay and wah) 
D#|---------------------------------------| 
A#|---------------------10---------8h10p8-| 
F#|---10----9h10p9---10----10/12~---------| 
C#|-0-----0-------------------------------| 
G#|---------------------------------------| 
C#|---------------------------------------| 

D#|----------------------------| 
A#|-10~------------------------| 
F#|------10~---9--7~-----------| 
C#|------------------0~--------| 
G#|----------------------0~----| 
C#|-------------------------0~-| 

D#|-----13-------12-------10-----------------------| 
A#|-/10----10-10----10-10----10-10-11-10-10-8h10p8-| 
F#|------------------------------------------------| 
C#|------------------------------------------------| 
G#|------------------------------------------------| 
C#|------------------------------------------------| 

D#|-13-------12-------10---------------| 
A#|----10-10----10-10----10-10-11-10-8-| 
F#|------------------------------------| 
C#|------------------------------------| 
G#|------------------------------------| 
C#|------------------------------------| 

D#|-13-------12-------10-----------------------| 
A#|----10-10----10-10----10-10-11-10-10-8h10p8-| 
F#|--------------------------------------------| 
C#|--------------------------------------------| 
G#|--------------------------------------------| 
C#|--------------------------------------------| 

D#|----------------------------------| 
A#|------------10--------------------| 
F#|-10-9-7-----------9-9b10r9-7---7\-| 
C#|--------0~-----0~---0--------0----| 
G#|----------------------------------| 
C#|----------------------------------| 

Riff 6 (distortion) "Don't go, don't go..." 
D#|------------------------------------------------------| 
A#|------------------------------------------------------| 
F#|------------------------------------------------------| 
C#|-12--0-0-0-0-12--0-0-0-0-13-0-10-0-12-0-10-0-8-0-10-0-| 
G#|------------------------------------------------------| 
C#|------------------------------------------------------| 
    *   * * * * *   * * * * *  * *  * *  * *  * * * *  * 

Repeat above x3 then: 
D#|----------------------------------------------------| 
A#|----------------------------------------------------| 
F#|----------------------------------------------------| 
C#|-12--0-0-0-0-12--0-0-0-0-3-3-3-5-5-5-8-8-8-10-10-10-| 
G#|----------------------------------------------------| 
C#|----------------------------------------------------| 
    *   * * * * *   * * * * * * * * * * * * * *  *  * 

D#|------------------------------------------------------| 
A#|------------------------------------------------------| 
F#|------------------------------------------------------| 
C#|-12--0-0-0-0-12--0-0-0-0-13-0-10-0-12-0-10-0-8-0-10-0-| 
G#|------------------------------------------------------| 
C#|------------------------------------------------------| 
    *   * * * * *   * * * * *  * *  * *  * *  * * * *  * 

Repeat above x3 then: 
D#|-----------------------------------------------| 
A#|-----------------------------------------------| 
F#|-----------------------------------------------| 
C#|-12--0-0-0-0-12--0-0-0-0-----------------------| 
G#|-------------------------3--3-5--5-8--8-10--10-| 
C#|-------------------------3--3-5--5-8--8-10--10-| 

Riff 7   "I don't know what is happening!" 
D#|------------------------------------------------------| 
A#|------------------------------------------------------| 
F#|------------------------------------------------------| 
C#|------------------------------------------------------| 
G#|------------------------------------------------------| 
C#|-12--0-0-0-0-12--0-0-0-0-13-0-10-0-12-0-10-0-8-0-10-0-| 

Repeat above x3 then: 
D#|----------------------------------------------------| 
A#|----------------------------------------------------| 
F#|----------------------------------------------------| 
C#|----------------------------------------------------| 
G#|-------------------------3-3-3-5-5-5-8-8-8-10-10-10-| 
C#|-12--0-0-0-0-12--0-0-0-0-3-3-3-5-5-5-8-8-8-10-10-10-| 

Riff 8   "Is this the end or just the beginning?" 
D#|--------------------------------------------------| 
A#|--------------------------------------------------| 
F#|--------------------------------------------------| 
C#|--------------------------------------------------| 
G#|-12\-0-0-0----12\-0-0-0----12\-0-0-0----12\-0-0-0-| 
C#|-12\-0-0-0----12\-0-0-0----12\-0-0-0----12\-0-0-0-| 
        * * *        * * *        * * *        * * * 

Play Riff 1 x4   "Broken body crumbles into dust..." 
Play Riff 2 
Play Riff 3      "Pass me on to eternity..." 
Play Riff 4 x2   "...cry no more for me..." 

Riff 9   "Crossing through, fade into..." 
D#|------------------------------------------------------| 
A#|------------------------------------------------------| 
F#|------------------------------------------------------| 
C#|------------------------------------------------------| 
G#|------------------------------------------------------| 
C#|-12--0-0-0-0-12--0-0-0-0-13-0-10-0-12-0-10-0-8-0-10-0-| 
    *   * * * * *   * * * * *  * *  * *  * *  * * * *  * 

Repeat above x3 then: 
D#|-----------------------------------------------| 
A#|-----------------------------------------------| 
F#|-----------------------------------------------| 
C#|-----------------------------------------------| 
G#|-------------------------3--3-5--5-8--8-10--10-| 
C#|-12--0-0-0-0-12--0-0-0-0-3--3-5--5-8--8-10--10-| 

Play Riff 7 x2   "Fade into the light!" 

Ending 
D#|------------------------| 
A#|------------------------| 
F#|------------------------| 
C#|------------------------| 
G#|-12\-0--0--0~-----------| 
C#|-12\-0--0--0~-----------| 
        *  * 

Enjoy! 
		  

See also:

tabs Audioslave - Cochise tabs Red Hot Chili Peppers - Can't Stop (ver. 2) tabs Red Hot Chili Peppers - Suck My Kiss tabs Red Hot Chili Peppers - Californication tabs Incubus - Talk show on mute tabs Paramore - Misery Business (tablaturas)
e-chords

Other versions:

tabs 10 Years - Fade Into (the Ocean) tabs Avicii - Fade Into Darkness
auto scroll beats size up size down change color hide chords drawings
tab show chords e-chords YouTube Clip e-chords hide all tabs e-chords go to top tab

share with facebook