10 Years

Alabama

10 Years

tabs

by  DEIVCAVALCANTI

save to print version add songbook text version e-mail correct tuner
chordsukulelecavacokeyboardtabbassdrumsharmonicaflute Guitar Pro
close

there isn't a video lesson for this song

chords

Alabama

	  		
Intro 

eb|-------------------------------------------------------------------------| 
Bb|-----3-------------------------------------------------------------------| 
Gb|-3-5---5----5---5---5---5---5---5----------------------------------------| 
Db|-----------------------------------(x2)----------------------------------| 
Ab|-3~-------3---3---3---3---3---3------------------------------------------| 
Db|-------------------------------------------------------------------------| 

Verse 
Gtr 1 
eb|-------------------------------------------------------------------------| 
Bb|-------------------------------------------------------------------------| 
Gb|---5--5----5--5----5--5----5--5------------------------------------------| 
Db|--------------------------------------(x4)-------------------------------| 
Ab|-3---3---3---3---3---3---3---3-------------------------------------------| 
Db|-------------------------------------------------------------------------| 

Gtr 2 
eb|----------|  
Bb|-----3----|  
Gb|-3-5---5--|  
Db|----------|  
Ab|-3~-------|  
Db|----------|  

Both guitars end on 

eb|----| 
Bb|----| 
Gb|-3~-| 
Db|-3~-| 
Ab|-1~-| 
Db|----| 


Pre Chorus 

eb|-------------------------------------------------------------------------| 
Bb|-------------------------------------------------------------------------| 
Gb|---5---5-5--5---5-5--5----5-5--5----3-3----------------------------------| 
Db|------------------------------------3-3-(x3)-----------------------------| 
Ab|-3--33--3-3--33--3-3---33--3-3---33-1-1----------------------------------| 
Db|-------------------------------------------------------------------------| 

eb|-------------------------------------------------------------------------| 
Bb|-------------------------------------------------------------------------| 
Gb|---5---5----5---5----5----5----5----33333333-----------------------------| 
Db|------------------------------------33333333-----------------------------| 
Ab|-3--33--3-3--33--3-3---33--3-3---33-11111111-----------------------------| 
Db|-------------------------------------------------------------------------| 

Chorus 
Not sure about the rhythm, the guitars on this song are pretty muffled 
eb|-------------------------------------------------------------------------| 
Bb|-------------------------------------------------------------------------| 
Gb|-888-777--------------------888-777-101010-888-77-8888-5~----------------| 
Db|-888-777-888-555-33-5555-1~-888-777-101010-888-77-8888-5~--(x2)----------| 
Ab|-666-555-888-555-33-5555-1~-666-555--8-8-8-666-55-6666-3~----------------| 
Db|---------888-555-33-5555-1~----------------------------------------------| 

Verse 2 
Guitar one plays this 
eb|-------------------------------------------------------------------------| 
Bb|-------------------------------------------------------------------------| 
Gb|---5---5-5--5---5-5--5----5-5--5-----------------------------------------| 
Db|-------------------------------------------------------------------------| 
Ab|-3--33--3-3--33--3-3---33--3-3---33--------------------------------------| 
Db|-------------------------------------------------------------------------| 

Guitar 2 comes in at different intervals with the following riffs 

eb|----------| |--------| 
Bb|-----3----| |--------| 
Gb|-3-5---5--| |-8~-7~--| 
Db|----------| |-8~-7~--| 
Ab|-3~-------| |-6~-5~--| 
Db|----------| |--------| 

Bridge 
Haven't figured out guitar 2, but guitar 1 just strums this 
eb|-3-| 
Bb|-3-| 
Gb|-5-| 
Db|-5-| 
Ab|-3-| 
Db|---| 

End solo 

eb|-15----16-15-20~-15~-15----16-15-----------------------------------------| 
Bb|----16------------------16-------15~-13~---------------------------------| 
Gb|-------------------------------------------------------------------------| 
Db|-------------------------------------------------------------------------| 
Ab|-------------------------------------------------------------------------| 
Db|-------------------------------------------------------------------------| 
 
		  

See also:

tabs Audioslave - Cochise tabs Red Hot Chili Peppers - Can't Stop (ver. 2) tabs Red Hot Chili Peppers - Suck My Kiss tabs Red Hot Chili Peppers - Californication tabs Incubus - Talk show on mute tabs Paramore - Misery Business (tablaturas)
e-chords

Other versions:

tabs 10 Years - Alabama tabs Black Pistol Fire - Alabama Coldcock
auto scroll beats size up size down change color hide chords drawings
tab show chords e-chords YouTube Clip e-chords hide all tabs e-chords go to top tab

share with facebook