10 Years

Crimson Kiss

10 Years

tabs

by  VSWORLD

save to print version add songbook text version e-mail correct tuner
chordsukulelecavacokeyboardtabbassdrumsharmonicaflute Guitar Pro
close

there isn't a video lesson for this song

chords

Crimson Kiss

	  		Tuning: Drop C# (C#,G#,C#,F#,A#,D#) 

Riff 1 (let all notes/chords ring out) 
D#|-1-0---0--------1-0---0---| 
A#|-3-3-----3------3-3-----3-| 
F#|-2-2------------2-2-------| 
C#|-3-3-3----------3-3-3-----| 
G#|-0-0-0----------0-0-0-----| 
C#|-0-0-0----------0-0-0-----| 

Play Riff 1 x2 

Riff 2   "To tame our tongues..." 
D#|-----------------------------------------| 
A#|-----------------------------------------| 
F#|-9---------------------------------------| 
C#|-10--10-10-10---10-10-10-10-10-10--10-10-| 
G#|-8---8--8--8----8--8--8--8--8--8---8--8--| 
C#|-8---8--8--8----8--8--8--8--8--8---8--8--| 

Play Riff 2 x4   "Lets black out the sun and the sky..." 
Play Riff 1 x1   "...tonight, to feel alive..." 
Play Riff 2 x2   "We will be kings and queens..." 

Riff 3   "I am your loaded gun..." 
D#|------------------------------------------------------------------| 
A#|------------------------------------------------------------------| 
F#|------------------------------------------------------------------| 
C#|------------------------------------------------------------------| 
G#|------------------------------------------------------------------| 
C#|-0--7--0-8-7-5-7-0--7--0-8-10-10--0--7--0-8-7-5-7-0--7--0-8-7-5-3-| 

Play Riff 3 x2   "You are my chosen one..." 
Play Riff 1 x1   
Play Riff 2 x4   "Out of your minds..." 
Play Riff 1 x1   "Chasing horizon lines, to feel alive..." 
Play Riff 2 x2   "Your disease kills me..." 
Play Riff 3 x2   "I am your loaded gun..." 

Riff 4 
D#|----------------------| 
A#|----------------------| 
F#|----------------------| 
C#|-----------5----------| 
G#|-1-0-0-0-0-6-0-0-0-0--| 
C#|-1-0-0-0-0---0-0-0-0--| 
        * * *     * * * 

Play Riff 4 x4 

Riff 5 
D#|-12-12-12-12-12-12-12-12-12--12--12--12--12--12--12--12--12--| 
A#|-15-15-15-15-15-15-15-15-15b-15b-15b-15b-15b-15b-15b-15b-15b-| 
F#|-------------------------------------------------------------| 
C#|-------------------------------------------------------------| 
G#|-------------------------------------------------------------| 
C#|-------------------------------------------------------------| 

Play Riff 5 x4 

Riff 5 (2nd guitar, comes in after you play above twice) 
D#|-----------------------------------------| 
A#|-5-5-5-5-5-5-5-5-5--5--5--5--5--5--5--5--| 
F#|-7-7-7-7-7-7-7-7-7b-7b-7b-7b-7b-7b-7b-7b-| 
C#|-----------------------------------------| x2 
G#|-----------------------------------------| 
C#|-----------------------------------------| 

Play Riff 1 x1 
Play Riff 3 x2   "I am your loaded gun..." 
Play Riff 4 x4 
Play Riff 1 x0.5 (let last chord ring out until end) 
 
		  

See also:

tabs Audioslave - Cochise tabs Red Hot Chili Peppers - Can't Stop (ver. 2) tabs Red Hot Chili Peppers - Suck My Kiss tabs Red Hot Chili Peppers - Californication tabs Incubus - Talk show on mute tabs Paramore - Misery Business (tablaturas)
e-chords

Other versions:

tabs 10 Years - Crimson Kiss
auto scroll beats size up size down change color hide chords drawings
tab show chords e-chords YouTube Clip e-chords hide all tabs e-chords go to top tab

share with facebook