10 Years

Fix Me

10 Years

tabs

by  UBIRBOMFIM

save to print version add songbook text version e-mail correct tuner
chordsukulelecavacokeyboardtabbassdrumsharmonicaflute Guitar Pro
close

there isn't a video lesson for this song

chords

Fix Me

Key:  C# More
Fix Me Key G#G#
Fix Me Key AA
Fix Me Key A#A#
Fix Me Key BB(one step down)
Fix Me Key CC(half step down)
Fix Me Key C#C#(original key)
Fix Me Key DD(half step up)
Fix Me Key D#D#(one step up)
Fix Me Key EE
Fix Me Key FF
Fix Me Key F#F#
Fix Me Key GG
	  		

Tuning: C# G# C# F# A# D# 



Intro (Lead) Clean 

D#|----------------------------------| 
A#|----------------------------------| 
F#|--------10------------------------| 
C#|------0----0----8----8-7----7-----| x2 
G#|---10--------10---10-----10---10--| 
C#|-0--------------------------------| 

Verse (Rhythm & Lead) Clean 

D#|-------------------------------------------------| 
A#|-6~----------------------------------------------| 
F#|-7~----------------------------------------------| 
C#|-0~----/7--5--5-5h7p5-0--10~--10~-10-------1010~-| x4 
G#|-0~-----------------------8~---8~--8~-------8~8~-| 
C#|-0~-----------------------8~---8~--8~-------8~8~-| 

Pre-Chorus (Lead) Heavy Distortion 

D#|--------------------------------------------------------------------| 
A#|--------------------------------------------------------------------| 
F#|-------------------------------------------------------------9~10~--| 
C#|-8-0~00~--8~--7~-7~-7h8~-8-0~00~--8~--7~--7h10~-8-0~00~--8~---------| 
G#|-8-0~00~-10~-10~10~1010~-8-0~00~-10~-10~-10~10~-8-0~00~-10~---------| 
C#|-8-0~00~-----------------8-0~00~----------------8-0~00~-------------| 

D#|--------------------------------| 
A#|--------------------------------| 
F#|--------------------------------| 
C#|-8~-8~-8~-8~-8/10~10~10~-xx-xx--| 
G#|-8~-8~-8~-8~-8/10~10~10~-xx-xx--| 
C#|-8~-8~-8~-8~-8/10~10~10~-xx-xx--| 

Pre-Chorus (Rhythm) Heavy Distortion 

D#|--------------------------------------------------------------------| 
A#|--------------------------------------------------------------------| 
F#|--------------------------------------------------------------------| 
C#|-8-0~00~-----------------8-0~00~----------------8-0~00~-------------| 
G#|-8-0~00~-----------------8-0~00~----------------8-0~00~-------------| 
C#|-8-0~00~-----------------8-0~00~----------------8-0~00~-------------| 

D#|--------------------------------| 
A#|--------------------------------| 
F#|--------------------------------| 
C#|-8~-8~-8~-8~-8/10~10~10~-xx-xx--| 
G#|-8~-8~-8~-8~-8/10~10~10~-xx-xx--| 
C#|-8~-8~-8~-8~-8/10~10~10~-xx-xx--| 

Chorus (Lead) Heavy Distortion 

{Determine your own strumming patern for the 8, 10, & 5 power chords} 

D#|----------------------------------------------| 
A#|----------------------------------------------| 
F#|----------------------------------------------|  
C#|-8~---8/10~---\5~---5555/7777/8888/10101010---| x2 
G#|-8~---8/10~---\5~---5555/7777/8888/10101010---| 
C#|-8~---8/10~---\5~---5555/7777/8888/10101010---| 

Chorus (Rhythm) Heavy Distortion 

D#|----------------------------------------------| 
A#|----------------------------------------------| 
F#|----------------------------------------------|  
C#|-8~---8/10~---\5~---5555/7777/8888/10101010---| x1 
G#|-8~---8/10~---\5~---5555/7777/8888/10101010---| 
C#|-8~---8/10~---\5~---5555/7777/8888/10101010---| 

D#|--------------------------------------------| 
A#|--------------------------------------------| 
F#|-10----10----10----10----9----9----7---7----| 
C#|----12----12----12----12---10---10---8---8--| x3 
G#|--------------------------------------------| 
C#|--------------------------------------------| 
     .  .  .  .  .  .  .  . .  . .  . . . . . 

D#|----------------------------| 
A#|----------------------------| 
F#|----------------------------|  
C#|-5555/7777/8888/10101010-0~-|  
G#|-5555/7777/8888/10101010-0~-| 
C#|-5555/7777/8888/10101010-0~-| 

Pre-verse 2 (Lead) Clean 

D#|----------------------------------| 
A#|----------------------------------| 
F#|--------10------------------------| 
C#|------0----0----8----8-7----7-----| x2 
G#|---10--------10---10-----10---10--| 
C#|-0--------------------------------| 

verse 2 (Rhythm & Lead) Clean 

D#|-------------------------------------------------| 
A#|-6~----------------------------------------------| 
F#|-7~----------------------------------------------| 
C#|-0~----/7--5--5-5h7p5-0--10~--10~-10-------1010~-| x2 
G#|-0~-----------------------8~---8~--8~-------8~8~-| 
C#|-0~-----------------------8~---8~--8~-------8~8~-| 

Pre-Chorus 2 (Lead) Heavy Distortion 

D#|--------------------------------------------------------------------| 
A#|--------------------------------------------------------------------| 
F#|-------------------------------------------------------------9~10~--| 
C#|-8-0~00~--8~--7~-7~-7h8~-8-0~00~--8~--7~--7h10~-8-0~00~--8~---------| 
G#|-8-0~00~-10~-10~10~1010~-8-0~00~-10~-10~-10~10~-8-0~00~-10~---------| 
C#|-8-0~00~-----------------8-0~00~----------------8-0~00~-------------| 

D#|--------------------------------| 
A#|--------------------------------| 
F#|--------------------------------| 
C#|-8~-8~-8~-8~-8/10~10~10~-xx-xx--| 
G#|-8~-8~-8~-8~-8/10~10~10~-xx-xx--| 
C#|-8~-8~-8~-8~-8/10~10~10~-xx-xx--| 

Pre-Chorus 2 (Rhythm) Heavy Distortion 

D#|--------------------------------------------------------------------| 
A#|--------------------------------------------------------------------| 
F#|--------------------------------------------------------------------| 
C#|-8-0~00~-----------------8-0~00~----------------8-0~00~-------------| 
G#|-8-0~00~-----------------8-0~00~----------------8-0~00~-------------| 
C#|-8-0~00~-----------------8-0~00~----------------8-0~00~-------------| 

D#|--------------------------------| 
A#|--------------------------------| 
F#|--------------------------------| 
C#|-8~-8~-8~-8~-8/10~10~10~-xx-xx--| 
G#|-8~-8~-8~-8~-8/10~10~10~-xx-xx--| 
C#|-8~-8~-8~-8~-8/10~10~10~-xx-xx--| 

Chorus 2 (Lead) Heavy Distortion 

{Determine your own strumming patern for the 8, 10, & 5 power chords} 

D#|----------------------------------------------| 
A#|----------------------------------------------| 
F#|----------------------------------------------|  
C#|-8~---8/10~---\5~---5555/7777/8888/10101010---| x2 
G#|-8~---8/10~---\5~---5555/7777/8888/10101010---| 
C#|-8~---8/10~---\5~---5555/7777/8888/10101010---| 

Chorus 2 (Rhythm) Heavy Distortion 

D#|----------------------------------------------| 
A#|----------------------------------------------| 
F#|----------------------------------------------|  
C#|-8~---8/10~---\5~---5555/7777/8888/10101010---| x1 
G#|-8~---8/10~---\5~---5555/7777/8888/10101010---| 
C#|-8~---8/10~---\5~---5555/7777/8888/10101010---| 

D#|--------------------------------------------| 
A#|--------------------------------------------| 
F#|-10----10----10----10----9----9----7---7----| 
C#|----12----12----12----12---10---10---8---8--| x3 
G#|--------------------------------------------| 
C#|--------------------------------------------| 
     .  .  .  .  .  .  .  . .  . .  . . . . . 

D#|---------------------------| 
A#|---------------------------| 
F#|---------------------------|  
C#|-5555/7777/8888/10101010.--|  
G#|-5555/7777/8888/10101010.--| 
C#|-5555/7777/8888/10101010.--| 

Breakdown (Lead) Heavy Distortion 

D#|---------------------------------| 
A#|---------------------------------| 
F#|-7---7---7---7---7---7---7---7---| 
C#|---0---0---0---0---0---0---0---0-| x8 
G#|---------------------------------| 
C#|---------------------------------| 
    . . . . . . . . . . . . . . . . 

Breakdown (Rhythm) Heavy Distortion 

After the 4th time on the Lead, Rhythm plays this. 

D#|---------------------------------| 
A#|---------------------------------| 
F#|---------------------------------| 
C#|-00.-----------------------------| x4 
G#|-00.-----------------------------| 
C#|-00.-----------------------------| 

Pre-Chorus 3 (Lead & Rhythm) Heavy Distortion 

D#|---------------------| 
A#|---------------------| 
F#|---------------------| 
C#|-5555/7777/8888xxxx--| 
G#|-5555/7777/8888xxxx--| 
C#|-5555/7777/8888xxxx--| 

Chorus 3 (Lead) Heavy Distortion 

{Determine your own strumming patern for the first 8, 10, & 5 power chords} 

D#|----------------------------------------------| 
A#|----------------------------------------------| 
F#|----------------------------------------------|  
C#|-8~---8/10~---\5~---5555/7777/8888/10101010---| x3 
G#|-8~---8/10~---\5~---5555/7777/8888/10101010---| 
C#|-8~---8/10~---\5~---5555/7777/8888/10101010---| 

Chorus 3 (Rhythm) Heavy Distortion 

D#|----------------------------------------------| 
A#|----------------------------------------------| 
F#|----------------------------------------------|  
C#|-8~---8/10~---\5~---5555/7777/8888/10101010---| x1 
G#|-8~---8/10~---\5~---5555/7777/8888/10101010---| 
C#|-8~---8/10~---\5~---5555/7777/8888/10101010---| 

D#|--------------------------------------------|      - 
A#|--------------------------------------------|       | 
F#|-10----10----10----10----9----9----7---7----|       | 
C#|----12----12----12----12---10---10---8---8--| x3    |  
G#|--------------------------------------------|       | 
C#|--------------------------------------------|       | 
     .  .  .  .  .  .  .  . .  . .  . . . . .          | x2 
                                                       |  
D#|---------------------------|                        | 
A#|---------------------------|                        | 
F#|---------------------------|                        | 
C#|-5555/7777/8888/10101010.--|                        | 
G#|-5555/7777/8888/10101010.--|                        | 
C#|-5555/7777/8888/10101010.--|                       - 

Post-Chrous 3 (Lead) Heavy Distortion 

D#|-----------------------------------------| 
A#|-----------------------------------3~~~~~| 
F#|-------------9~-9h10~--------------2~~~~~| 
C#|-8-0-00~-8~-----------8-0-00~8-0-0-0~~~~~| 
G#|-8-0-00~10------------8-0-00~8-0-0-0~~~~~| 
C#|-8-0-00~--------------8-0-00~8-0-0-0~~~~~| 

Post-Chorus 3 (Rhythm) Heavy Distortion 

D#|-----------------------------------------| 
A#|-----------------------------------3~~~~~| 
F#|-----------------------------------2~~~~~| 
C#|-8-0-00~8-0-00~-------8-0-00~8-0-0-0~~~~~| 
G#|-8-0-00~8-0-00~-------8-0-00~8-0-0-0~~~~~| 
C#|-8-0-00~8-0-00~-------8-0-00~8-0-0-0~~~~~| 
		  

See also:

tabs Audioslave - Cochise tabs Red Hot Chili Peppers - Can't Stop (ver. 2) tabs Red Hot Chili Peppers - Suck My Kiss tabs Red Hot Chili Peppers - Californication tabs Incubus - Talk show on mute tabs Paramore - Misery Business (tablaturas)
e-chords

Other versions:

tabs 10 Years - Fix Me tabs Emery - Fix Me (solo) tabs Garbage - Fix Me Now tabs Black Flag - Fix Me!
auto scroll beats size up size down change color hide chords drawings
tab show chords e-chords YouTube Clip e-chords hide all tabs e-chords go to top tab

share with facebook