10 Years

From Birth To Burial

10 Years

tabs

by  SABRJOAO

save to print version add songbook text version e-mail correct tuner
chordsukulelecavacokeyboardtabbassdrumsharmonicaflute Guitar Pro
close

there isn't a video lesson for this song

chords

From Birth To Burial

	  		 

Tuning: Drop C# (C#,G#,C#,F#,A#,D#) 

Riff 1 (clean)   "You're next in line to love me..." 
D#|---------------------------------------------------------| 
A#|-----------------------------------------9~------8~------| 
F#|---10---9---7---5---5\2---2---5---7~---------------------| 
C#|-0----0---0---0---0-----0---0---0------------------------| 
G#|---------------------------------------------------------| 
C#|---------------------------------------------------------| 

Play Riff 1 x4   "So say goodbye and leave me..." 

Fill 1 (clean)   "Bury my bones when the glory is gone..." 
D#|-----------------| 
A#|-9~------8~------| 
F#|-----------------| 
C#|-----------------| 
G#|-----------------| 
C#|-----------------| 

Riff 2 (distortion)   "The infection..." 
D#|------------------------------------| 
A#|------------------------------------| 
F#|------------------------------------| 
C#|------------------------------------| 
G#|------------------------------------| 
C#|-0--0-0-0-0--0-0----0--0-0-0-0--0-0-| 
    *  * * * *  * *    *  * * * *  * * 

Play Riff 2 x2   "...to the heart and head..." 

Riff 3 (guitar 1, light distortion)   "There's no royalty in shooting stars..." 
D#|--------------------| 
A#|--------------------| 
F#|----7*~-------------| 
C#|-7*-----------------| 
G#|--------------------| 
C#|--------------------| 
       ^ pull whammy bar up slightly 

           "...discolored and oxidized..." 
D#|---------------------------| 
A#|--------------------11-----| 
F#|-11----12-12h14~--------12-| 
C#|----0----------------------| x2 
G#|---------------------------| 
C#|---------------------------| 

Riff 3 (guitar 2, clean)   "...discolored and oxidized..." 
D#|-----------------------------------------| 
A#|-----------------------------------------| 
F#|-----------------------------------------| 
C#|---12---12--10h12p10---12---12--10/12-15-| x3 
G#|-----------------------------------------| 
C#|-0----0--------------0----0--------------| 

D#|-------------------------------| 
A#|-------------------------------| 
F#|-------------------------------| 
C#|---12---12--10h12p10---12---10-| 
G#|-------------------------------| 
C#|-0----0--------------0----0----| 

Riff 4 (both guitars, full distortion) 
D#|------------------------------------| 
A#|------------------------------------| 
F#|------------------------------------| 
C#|------------------------------------| 
G#|----------------5-----------------5-| 
C#|-0--0--3--0--0-----0--0--3--0--0----| 

         "Fair well, welfare..." 
D#|-------------------------------------| 
A#|-------------------------------------| 
F#|-------------------------------------| 
C#|-------------------------------------| 
G#|-----------------5-----------------5-| 
C#|-0--0-0-3-0--0-0---0--0-0-3-0--0-0---| 

Play Riff 4 x2   "Fair well, welfare..." 

Fill 2 
D#|-------------------------| 
A#|-------------------------| 
F#|-------------------------| 
C#|-0~------------------12\-| 
G#|-0~------------------12\-| 
C#|-0~------------------12\-| 

Play Riff 3 x1   "Long-winded lies..." 
Play Riff 4 x2   "Fair well, welfare..." 

Riff 5   "...from birth to burial..." 
D#|-------------3----------------------| 
A#|-------------3----------------------| 
F#|-----5-7--8--5------5-7--8----------| 
C#|-0-0-5-7--8--5--0-0-5-7--8----------| 
G#|-0-0-3-5--6--3--0-0-3-5--6----------| 
C#|-0-0------------0-0---------3--5--6-| 

Play Riff 5 x2   "...from birth to burial..." 

Fill 3 
D#|------------| 
A#|------------| 
F#|------------| 
C#|----------0-| 
G#|----------0-| 
C#|-3--5--6--0-| 

Play Riff 1 x1   "So say goodbye, you loved me..." 
Play Riff 4 x2   "Fair well, welfare..." 
Play Riff 5 x2   "...from birth to burial..." 

Ending 
D#|---------------------------------------------------------| 
A#|---------------------------------------------------------| 
F#|---------------------------------------------------------| 
C#|-------------------------------------------------------0-| 
G#|-------------------------------------------------------0-| 
C#|-3--5--6--3--5--6--3--5--6--3--5--6--3--5--6--3--5--6--0-| 

Lyrics are probably off a little bit, but they're just guidelines for the tab. Enjoy!! 
		  

See also:

tabs Audioslave - Cochise tabs Red Hot Chili Peppers - Can't Stop (ver. 2) tabs Red Hot Chili Peppers - Suck My Kiss tabs Red Hot Chili Peppers - Californication tabs Incubus - Talk show on mute tabs Paramore - Misery Business (tablaturas)
e-chords

Other versions:

tabs 10 Years - From Birth To Burial
auto scroll beats size up size down change color hide chords drawings
tab show chords e-chords YouTube Clip e-chords hide all tabs e-chords go to top tab

share with facebook